  0
SECTION
  2
HEADER
  9
$ACADVER
  1
AC1015
  9
$ACADMAINTVER
 70
     6
  9
$DWGCODEPAGE
  3
ANSI_1254
  9
$INSBASE
 10
0.0
 20
0.0
 30
0.0
  9
$EXTMIN
 10
0.0
 20
0.0
 30
0.0
  9
$EXTMAX
 10
279.4
 20
215.9
 30
0.0
  9
$LIMMIN
 10
0.0
 20
0.0
  9
$LIMMAX
 10
279.4
 20
215.9
  9
$ORTHOMODE
 70
     0
  9
$REGENMODE
 70
     1
  9
$FILLMODE
 70
     1
  9
$QTEXTMODE
 70
     0
  9
$MIRRTEXT
 70
     1
  9
$LTSCALE
 40
1.0
  9
$ATTMODE
 70
     1
  9
$TEXTSIZE
 40
3.5
  9
$TRACEWID
 40
1.0
  9
$TEXTSTYLE
  7
Standard
  9
$CLAYER
  8
0
  9
$CELTYPE
  6
ByLayer
  9
$CECOLOR
 62
   256
  9
$CELTSCALE
 40
1.0
  9
$DISPSILH
 70
     0
  9
$DIMSCALE
 40
1.0
  9
$DIMASZ
 40
3.5
  9
$DIMEXO
 40
1.0
  9
$DIMDLI
 40
3.75
  9
$DIMRND
 40
0.0
  9
$DIMDLE
 40
0.0
  9
$DIMEXE
 40
1.0
  9
$DIMTP
 40
0.0
  9
$DIMTM
 40
0.0
  9
$DIMTXT
 40
3.5
  9
$DIMCEN
 40
2.5
  9
$DIMTSZ
 40
0.0
  9
$DIMTOL
 70
     0
  9
$DIMLIM
 70
     0
  9
$DIMTIH
 70
     1
  9
$DIMTOH
 70
     1
  9
$DIMSE1
 70
     0
  9
$DIMSE2
 70
     0
  9
$DIMTAD
 70
     1
  9
$DIMZIN
 70
     0
  9
$DIMBLK
  1

  9
$DIMASO
 70
     1
  9
$DIMSHO
 70
     1
  9
$DIMPOST
  1

  9
$DIMAPOST
  1

  9
$DIMALT
 70
     0
  9
$DIMALTD
 70
     3
  9
$DIMALTF
 40
0.0393700787
  9
$DIMLFAC
 40
1.0
  9
$DIMTOFL
 70
     1
  9
$DIMTVP
 40
0.0
  9
$DIMTIX
 70
     0
  9
$DIMSOXD
 70
     0
  9
$DIMSAH
 70
     0
  9
$DIMBLK1
  1

  9
$DIMBLK2
  1

  9
$DIMSTYLE
  2
ISO-25
  9
$DIMCLRD
 70
     0
  9
$DIMCLRE
 70
     0
  9
$DIMCLRT
 70
     0
  9
$DIMTFAC
 40
1.0
  9
$DIMGAP
 40
1.524
  9
$DIMJUST
 70
     0
  9
$DIMSD1
 70
     0
  9
$DIMSD2
 70
     0
  9
$DIMTOLJ
 70
     0
  9
$DIMTZIN
 70
     0
  9
$DIMALTZ
 70
     0
  9
$DIMALTTZ
 70
     0
  9
$DIMUPT
 70
     0
  9
$DIMDEC
 70
     2
  9
$DIMTDEC
 70
     2
  9
$DIMALTU
 70
     2
  9
$DIMALTTD
 70
     3
  9
$DIMTXSTY
  7
Standard
  9
$DIMAUNIT
 70
     0
  9
$DIMADEC
 70
     2
  9
$DIMALTRND
 40
0.0
  9
$DIMAZIN
 70
     0
  9
$DIMDSEP
 70
    44
  9
$DIMATFIT
 70
     3
  9
$DIMFRAC
 70
     0
  9
$DIMLDRBLK
  1

  9
$DIMLUNIT
 70
     2
  9
$DIMLWD
 70
    -2
  9
$DIMLWE
 70
    -2
  9
$DIMTMOVE
 70
     0
  9
$LUNITS
 70
     2
  9
$LUPREC
 70
     2
  9
$SKETCHINC
 40
1.0
  9
$FILLETRAD
 40
10.0
  9
$AUNITS
 70
     0
  9
$AUPREC
 70
     2
  9
$MENU
  1
.
  9
$ELEVATION
 40
0.0
  9
$PELEVATION
 40
0.0
  9
$THICKNESS
 40
0.0
  9
$LIMCHECK
 70
     0
  9
$CHAMFERA
 40
0.0
  9
$CHAMFERB
 40
0.0
  9
$CHAMFERC
 40
0.0
  9
$CHAMFERD
 40
0.0
  9
$SKPOLY
 70
     0
  9
$TDCREATE
 40
2460346.670709283
  9
$TDUCREATE
 40
2460346.545709283
  9
$TDUPDATE
 40
2460346.670709467
  9
$TDUUPDATE
 40
2460346.545709467
  9
$TDINDWG
 40
0.0000000116
  9
$TDUSRTIMER
 40
0.0000000116
  9
$USRTIMER
 70
     1
  9
$ANGBASE
 50
0.0
  9
$ANGDIR
 70
     0
  9
$PDMODE
 70
     0
  9
$PDSIZE
 40
-1.0
  9
$PLINEWID
 40
0.0
  9
$SPLFRAME
 70
     0
  9
$SPLINETYPE
 70
     6
  9
$SPLINESEGS
 70
     8
  9
$HANDSEED
  5
131
  9
$SURFTAB1
 70
     6
  9
$SURFTAB2
 70
     6
  9
$SURFTYPE
 70
     6
  9
$SURFU
 70
     6
  9
$SURFV
 70
     6
  9
$UCSBASE
  2

  9
$UCSNAME
  2

  9
$UCSORG
 10
0.0
 20
0.0
 30
0.0
  9
$UCSXDIR
 10
1.0
 20
0.0
 30
0.0
  9
$UCSYDIR
 10
0.0
 20
1.0
 30
0.0
  9
$UCSORTHOREF
  2

  9
$UCSORTHOVIEW
 70
     0
  9
$UCSORGTOP
 10
0.0
 20
0.0
 30
0.0
  9
$UCSORGBOTTOM
 10
0.0
 20
0.0
 30
0.0
  9
$UCSORGLEFT
 10
0.0
 20
0.0
 30
0.0
  9
$UCSORGRIGHT
 10
0.0
 20
0.0
 30
0.0
  9
$UCSORGFRONT
 10
0.0
 20
0.0
 30
0.0
  9
$UCSORGBACK
 10
0.0
 20
0.0
 30
0.0
  9
$PUCSBASE
  2

  9
$PUCSNAME
  2

  9
$PUCSORG
 10
0.0
 20
0.0
 30
0.0
  9
$PUCSXDIR
 10
1.0
 20
0.0
 30
0.0
  9
$PUCSYDIR
 10
0.0
 20
1.0
 30
0.0
  9
$PUCSORTHOREF
  2

  9
$PUCSORTHOVIEW
 70
     0
  9
$PUCSORGTOP
 10
0.0
 20
0.0
 30
0.0
  9
$PUCSORGBOTTOM
 10
0.0
 20
0.0
 30
0.0
  9
$PUCSORGLEFT
 10
0.0
 20
0.0
 30
0.0
  9
$PUCSORGRIGHT
 10
0.0
 20
0.0
 30
0.0
  9
$PUCSORGFRONT
 10
0.0
 20
0.0
 30
0.0
  9
$PUCSORGBACK
 10
0.0
 20
0.0
 30
0.0
  9
$USERI1
 70
     0
  9
$USERI2
 70
     0
  9
$USERI3
 70
     0
  9
$USERI4
 70
     0
  9
$USERI5
 70
     0
  9
$USERR1
 40
0.0
  9
$USERR2
 40
0.0
  9
$USERR3
 40
0.0
  9
$USERR4
 40
0.0
  9
$USERR5
 40
0.0
  9
$WORLDVIEW
 70
     1
  9
$SHADEDGE
 70
     3
  9
$SHADEDIF
 70
    70
  9
$TILEMODE
 70
     1
  9
$MAXACTVP
 70
    64
  9
$PINSBASE
 10
0.0
 20
0.0
 30
0.0
  9
$PLIMCHECK
 70
     0
  9
$PEXTMIN
 10
1.0000000000E+20
 20
1.0000000000E+20
 30
1.0000000000E+20
  9
$PEXTMAX
 10
-1.0000000000E+20
 20
-1.0000000000E+20
 30
-1.0000000000E+20
  9
$PLIMMIN
 10
0.0
 20
0.0
  9
$PLIMMAX
 10
420.0
 20
297.0
  9
$UNITMODE
 70
     0
  9
$VISRETAIN
 70
     1
  9
$PLINEGEN
 70
     0
  9
$PSLTSCALE
 70
     1
  9
$TREEDEPTH
 70
  3020
  9
$CMLSTYLE
  2
Standard
  9
$CMLJUST
 70
     0
  9
$CMLSCALE
 40
20.0
  9
$PROXYGRAPHICS
 70
     1
  9
$MEASUREMENT
 70
     1
  9
$CELWEIGHT
370
    -1
  9
$ENDCAPS
280
     0
  9
$JOINSTYLE
280
     0
  9
$LWDISPLAY
290
     1
  9
$INSUNITS
 70
     4
  9
$HYPERLINKBASE
  1

  9
$STYLESHEET
  1

  9
$XEDIT
290
     1
  9
$CEPSNTYPE
380
     0
  9
$PSTYLEMODE
290
     1
  9
$FINGERPRINTGUID
  2
{c126299a-66b4-4f4e-ae5b-4339db0fa810}
  9
$VERSIONGUID
  2
{FAEB1C32-E019-11D5-929B-00C0DF256EC4}
  9
$EXTNAMES
290
     1
  9
$PSVPSCALE
 40
0.0
  9
$OLESTARTUP
290
     0
  0
ENDSEC
  0
SECTION
  2
CLASSES
  0
CLASS
  1
ACDBDICTIONARYWDFLT
  2
AcDbDictionaryWithDefault
  3
ObjectDBX Classes
 90
        0
280
     0
281
     0
  0
CLASS
  1
VISUALSTYLE
  2
AcDbVisualStyle
  3
ObjectDBX Classes
 90
     4095
280
     0
281
     0
  0
CLASS
  1
MATERIAL
  2
AcDbMaterial
  3
ObjectDBX Classes
 90
     1153
280
     0
281
     0
  0
CLASS
  1
SCALE
  2
AcDbScale
  3
ObjectDBX Classes
 90
     1153
280
     0
281
     0
  0
CLASS
  1
TABLESTYLE
  2
AcDbTableStyle
  3
ObjectDBX Classes
 90
     4095
280
     0
281
     0
  0
CLASS
  1
MLEADERSTYLE
  2
AcDbMLeaderStyle
  3
ACDB_MLEADERSTYLE_CLASS
 90
     4095
280
     0
281
     0
  0
CLASS
  1
SUN
  2
AcDbSun
  3
SCENEOE
 90
     1153
280
     0
281
     0
  0
CLASS
  1
ACDBPLACEHOLDER
  2
AcDbPlaceHolder
  3
ObjectDBX Classes
 90
        0
280
     0
281
     0
  0
CLASS
  1
LAYOUT
  2
AcDbLayout
  3
ObjectDBX Classes
 90
        0
280
     0
281
     0
  0
ENDSEC
  0
SECTION
  2
TABLES
  0
TABLE
  2
VPORT
  5
8
330
0
100
AcDbSymbolTable
 70
     1
  0
VPORT
  5
29
330
8
100
AcDbSymbolTableRecord
100
AcDbViewportTableRecord
  2
*Active
 70
     0
 10
0.0
 20
0.0
 11
1.0
 21
1.0
 12
139.7
 22
107.95
 13
0.0
 23
0.0
 14
10.0
 24
10.0
 15
10.0
 25
10.0
 16
0.0
 26
0.0
 36
1.0
 17
0.0
 27
0.0
 37
0.0
 40
215.9
 41
1.2941176471
 42
50.0
 43
0.0
 44
0.0
 50
0.0
 51
0.0
 71
     0
 72
  2000
 73
     1
 74
     3
 75
     0
 76
     0
 77
     0
 78
     0
281
     0
 65
     1
110
0.0
120
0.0
130
0.0
111
1.0
121
0.0
131
0.0
112
0.0
122
1.0
132
0.0
 79
     0
146
0.0
  0
ENDTAB
  0
TABLE
  2
LTYPE
  5
5
330
0
100
AcDbSymbolTable
 70
     6
  0
LTYPE
  5
14
330
5
100
AcDbSymbolTableRecord
100
AcDbLinetypeTableRecord
  2
ByBlock
 70
     0
  3

 72
    65
 73
     0
 40
0.0
  0
LTYPE
  5
15
330
5
100
AcDbSymbolTableRecord
100
AcDbLinetypeTableRecord
  2
ByLayer
 70
     0
  3

 72
    65
 73
     0
 40
0.0
  0
LTYPE
  5
16
330
5
100
AcDbSymbolTableRecord
100
AcDbLinetypeTableRecord
  2
Continuous
 70
     0
  3
Solid line
 72
    65
 73
     0
 40
0.0
  0
LTYPE
  5
6E
330
5
100
AcDbSymbolTableRecord
100
AcDbLinetypeTableRecord
  2
HIDDEN
 70
     0
  3
Hidden __ __ __ __ __ __ __ __ __ __ __ __ __ __
 72
    65
 73
     2
 40
1.905
 49
1.27
 74
     0
 49
-0.635
 74
     0
  0
LTYPE
  5
6F
330
5
100
AcDbSymbolTableRecord
100
AcDbLinetypeTableRecord
  2
PHANTOM
 70
     0
  3
Phantom ______  __  __  ______  __  __  ______
 72
    65
 73
     6
 40
12.7
 49
6.35
 74
     0
 49
-1.27
 74
     0
 49
1.27
 74
     0
 49
-1.27
 74
     0
 49
1.27
 74
     0
 49
-1.27
 74
     0
  0
LTYPE
  5
70
330
5
100
AcDbSymbolTableRecord
100
AcDbLinetypeTableRecord
  2
CENTER
 70
     0
  3
Center ____ _ ____ _ ____ _ ____ _ ____ _ ____
 72
    65
 73
     4
 40
10.16
 49
6.35
 74
     0
 49
-1.27
 74
     0
 49
1.27
 74
     0
 49
-1.27
 74
     0
  0
LTYPE
  5
71
330
5
100
AcDbSymbolTableRecord
100
AcDbLinetypeTableRecord
  2
CENTERX2
 70
     0
  3
Center (2x) ________  __  ________  __  _____
 72
    65
 73
     4
 40
20.32
 49
12.7
 74
     0
 49
-2.54
 74
     0
 49
2.54
 74
     0
 49
-2.54
 74
     0
  0
LTYPE
  5
72
330
5
100
AcDbSymbolTableRecord
100
AcDbLinetypeTableRecord
  2
DOT2
 70
     0
  3
Dot (.5x) ........................................
 72
    65
 73
     2
 40
0.635
 49
0.0
 74
     0
 49
-0.635
 74
     0
  0
ENDTAB
  0
TABLE
  2
LAYER
  5
2
330
0
100
AcDbSymbolTable
 70
    17
  0
LAYER
  5
10
330
2
100
AcDbSymbolTableRecord
100
AcDbLayerTableRecord
  2
0
 70
     0
 62
     7
  6
Continuous
370
    -3
390
F
  0
LAYER
  5
73
330
2
100
AcDbSymbolTableRecord
100
AcDbLayerTableRecord
  2
FORMAT
 70
     0
 62
     7
  6
Continuous
370
    -3
390
F
  0
LAYER
  5
74
330
2
100
AcDbSymbolTableRecord
100
AcDbLayerTableRecord
  2
YARDIMCI_GEOMETRI
 70
     0
 62
    -6
  6
Continuous
290
     0
370
    -3
390
F
  0
LAYER
  5
75
330
2
100
AcDbSymbolTableRecord
100
AcDbLayerTableRecord
  2
SAYFA_CERCEVESI
 70
     0
 62
     7
  6
Continuous
370
    25
390
F
  0
LAYER
  5
76
330
2
100
AcDbSymbolTableRecord
100
AcDbLayerTableRecord
  2
ANTET
 70
     0
 62
     7
  6
Continuous
370
    -3
390
F
  0
LAYER
  5
77
330
2
100
AcDbSymbolTableRecord
100
AcDbLayerTableRecord
  2
OLCU
 70
     0
 62
   150
  6
Continuous
370
    -3
390
F
  0
LAYER
  5
78
330
2
100
AcDbSymbolTableRecord
100
AcDbLayerTableRecord
  2
METIN
 70
     0
 62
    96
  6
Continuous
370
    -3
390
F
  0
LAYER
  5
79
330
2
100
AcDbSymbolTableRecord
100
AcDbLayerTableRecord
  2
BALON
 70
     0
 62
     5
  6
Continuous
370
    -3
390
F
  0
LAYER
  5
7A
330
2
100
AcDbSymbolTableRecord
100
AcDbLayerTableRecord
  2
VURGU
 70
     0
 62
     7
  6
Continuous
370
    -3
390
F
  0
LAYER
  5
7B
330
2
100
AcDbSymbolTableRecord
100
AcDbLayerTableRecord
  2
SILIK
 70
     0
 62
     7
  6
Continuous
370
    -3
390
F
  0
LAYER
  5
7C
330
2
100
AcDbSymbolTableRecord
100
AcDbLayerTableRecord
  2
MODEL
 70
     0
 62
     7
  6
Continuous
370
    -3
390
F
  0
LAYER
  5
7D
330
2
100
AcDbSymbolTableRecord
100
AcDbLayerTableRecord
  2
DETAYLANDıRMA
 70
     0
 62
   190
  6
Continuous
370
    -3
390
F
  0
LAYER
  5
7E
330
2
100
AcDbSymbolTableRecord
100
AcDbLayerTableRecord
  2
TOLERANS
 70
     0
 62
   230
  6
Continuous
370
    -3
390
F
  0
LAYER
  5
7F
330
2
100
AcDbSymbolTableRecord
100
AcDbLayerTableRecord
  2
MERKEZ_CIZGILERI
 70
     0
 62
    30
  6
Continuous
370
    -3
390
F
  0
LAYER
  5
80
330
2
100
AcDbSymbolTableRecord
100
AcDbLayerTableRecord
  2
KESIT-DETAY_CIZGILERI
 70
     0
 62
     7
  6
Continuous
370
    -3
390
F
  0
LAYER
  5
81
330
2
100
AcDbSymbolTableRecord
100
AcDbLayerTableRecord
  2
\U+041E\U+0421\U+0415\U+0412\U+042B\U+0415
 70
     0
 62
     7
  6
Continuous
370
    -3
390
F
  0
LAYER
  5
82
330
2
100
AcDbSymbolTableRecord
100
AcDbLayerTableRecord
  2
\U+0412\U+041E\U+0414\U+042F\U+041D\U+042B\U+0415_\U+0417\U+041D\U+0410\U+041A\U+0418
 70
     0
 62
    11
  6
Continuous
370
    -3
390
F
  0
ENDTAB
  0
TABLE
  2
STYLE
  5
3
330
0
100
AcDbSymbolTable
 70
     1
  0
STYLE
  5
11
330
3
100
AcDbSymbolTableRecord
100
AcDbTextStyleTableRecord
  2
Standard
 70
     0
 40
0.0
 41
1.0
 50
0.0
 71
     0
 42
3.5
  3
txt
  4

  0
ENDTAB
  0
TABLE
  2
VIEW
  5
6
330
0
100
AcDbSymbolTable
 70
     0
  0
ENDTAB
  0
TABLE
  2
UCS
  5
7
330
0
100
AcDbSymbolTable
 70
     0
  0
ENDTAB
  0
TABLE
  2
APPID
  5
9
330
0
100
AcDbSymbolTable
 70
     1
  0
APPID
  5
12
330
9
100
AcDbSymbolTableRecord
100
AcDbRegAppTableRecord
  2
ACAD
 70
     0
  0
ENDTAB
  0
TABLE
  2
DIMSTYLE
  5
A
330
0
100
AcDbSymbolTable
 70
     1
100
AcDbDimStyleTable
  0
DIMSTYLE
105
27
330
A
100
AcDbSymbolTableRecord
100
AcDbDimStyleTableRecord
  2
ISO-25
 70
     0
 41
2.5
 42
0.625
 43
3.75
 44
1.25
 73
     0
 74
     0
 77
     1
 78
     8
140
2.5
141
2.5
143
0.0393700787
147
0.625
171
     3
172
     1
178
     0
271
     2
272
     2
274
     3
278
    44
283
     0
284
     8
340
11
  0
ENDTAB
  0
TABLE
  2
BLOCK_RECORD
  5
1
330
0
100
AcDbSymbolTable
 70
     4
  0
BLOCK_RECORD
  5
1F
330
1
100
AcDbSymbolTableRecord
100
AcDbBlockTableRecord
  2
*Model_Space
340
22
  0
BLOCK_RECORD
  5
1B
330
1
100
AcDbSymbolTableRecord
100
AcDbBlockTableRecord
  2
*Paper_Space
340
1E
  0
BLOCK_RECORD
  5
23
330
1
100
AcDbSymbolTableRecord
100
AcDbBlockTableRecord
  2
*Paper_Space0
340
26
  0
BLOCK_RECORD
  5
8E
330
1
100
AcDbSymbolTableRecord
100
AcDbBlockTableRecord
  2
SW_CENTERMARKSYMBOL_0
340
0
102
{BLKREFS
331
99
102
}
  0
BLOCK_RECORD
  5
C8
330
1
100
AcDbSymbolTableRecord
100
AcDbBlockTableRecord
  2
SW_CENTERMARKSYMBOL_1
340
0
102
{BLKREFS
331
D3
102
}
  0
BLOCK_RECORD
  5
D4
330
1
100
AcDbSymbolTableRecord
100
AcDbBlockTableRecord
  2
SW_CENTERMARKSYMBOL_2
340
0
102
{BLKREFS
331
DF
102
}
  0
ENDTAB
  0
ENDSEC
  0
SECTION
  2
BLOCKS
  0
BLOCK
  5
20
330
1F
100
AcDbEntity
  8
0
100
AcDbBlockBegin
  2
*Model_Space
 70
     0
 10
0.0
 20
0.0
 30
0.0
  3
*Model_Space
  1

  0
ENDBLK
  5
21
330
1F
100
AcDbEntity
  8
0
100
AcDbBlockEnd
  0
BLOCK
  5
1C
330
1B
100
AcDbEntity
 67
     1
  8
0
100
AcDbBlockBegin
  2
*Paper_Space
 70
     0
 10
0.0
 20
0.0
 30
0.0
  3
*Paper_Space
  1

  0
ENDBLK
  5
1D
330
1B
100
AcDbEntity
 67
     1
  8
0
100
AcDbBlockEnd
  0
BLOCK
  5
24
330
23
100
AcDbEntity
  8
0
100
AcDbBlockBegin
  2
*Paper_Space0
 70
     0
 10
0.0
 20
0.0
 30
0.0
  3
*Paper_Space0
  1

  0
ENDBLK
  5
25
330
23
100
AcDbEntity
  8
0
100
AcDbBlockEnd
  0
BLOCK
  5
8F
330
8E
100
AcDbEntity
  8
0
100
AcDbBlockBegin
  2
SW_CENTERMARKSYMBOL_0
 70
     0
 10
0.0
 20
0.0
 30
0.0
  3
SW_CENTERMARKSYMBOL_0
  1

  0
LINE
  5
91
330
8E
100
AcDbEntity
  8
FORMAT
 62
     0
100
AcDbLine
 10
0.0
 20
0.0
 30
0.0
 11
0.0
 21
2.5
 31
0.0
  0
LINE
  5
92
330
8E
100
AcDbEntity
  8
FORMAT
 62
     0
100
AcDbLine
 10
0.0
 20
0.0
 30
0.0
 11
-2.5
 21
0.0
 31
0.0
  0
LINE
  5
93
330
8E
100
AcDbEntity
  8
FORMAT
 62
     0
100
AcDbLine
 10
0.0
 20
0.0
 30
0.0
 11
0.0
 21
-2.5
 31
0.0
  0
LINE
  5
94
330
8E
100
AcDbEntity
  8
FORMAT
 62
     0
100
AcDbLine
 10
0.0
 20
0.0
 30
0.0
 11
2.5
 21
0.0
 31
0.0
  0
LINE
  5
95
330
8E
100
AcDbEntity
  8
FORMAT
 62
     0
100
AcDbLine
 10
0.0
 20
5.0
 30
0.0
 11
0.0
 21
28.5
 31
0.0
  0
LINE
  5
96
330
8E
100
AcDbEntity
  8
FORMAT
 62
     0
100
AcDbLine
 10
-5.0
 20
0.0
 30
0.0
 11
-28.5
 21
0.0
 31
0.0
  0
LINE
  5
97
330
8E
100
AcDbEntity
  8
FORMAT
 62
     0
100
AcDbLine
 10
0.0
 20
-5.0
 30
0.0
 11
0.0
 21
-28.5
 31
0.0
  0
LINE
  5
98
330
8E
100
AcDbEntity
  8
FORMAT
 62
     0
100
AcDbLine
 10
5.0
 20
0.0
 30
0.0
 11
28.5
 21
0.0
 31
0.0
  0
ENDBLK
  5
90
330
8E
100
AcDbEntity
  8
0
100
AcDbBlockEnd
  0
BLOCK
  5
C9
330
C8
100
AcDbEntity
  8
0
100
AcDbBlockBegin
  2
SW_CENTERMARKSYMBOL_1
 70
     0
 10
0.0
 20
0.0
 30
0.0
  3
SW_CENTERMARKSYMBOL_1
  1

  0
LINE
  5
CB
330
C8
100
AcDbEntity
  8
FORMAT
 62
     0
100
AcDbLine
 10
0.0
 20
0.0
 30
0.0
 11
0.0
 21
2.5
 31
0.0
  0
LINE
  5
CC
330
C8
100
AcDbEntity
  8
FORMAT
 62
     0
100
AcDbLine
 10
0.0
 20
0.0
 30
0.0
 11
-2.5
 21
0.0
 31
0.0
  0
LINE
  5
CD
330
C8
100
AcDbEntity
  8
FORMAT
 62
     0
100
AcDbLine
 10
0.0
 20
0.0
 30
0.0
 11
0.0
 21
-2.5
 31
0.0
  0
LINE
  5
CE
330
C8
100
AcDbEntity
  8
FORMAT
 62
     0
100
AcDbLine
 10
0.0
 20
0.0
 30
0.0
 11
2.5
 21
0.0
 31
0.0
  0
LINE
  5
CF
330
C8
100
AcDbEntity
  8
FORMAT
 62
     0
100
AcDbLine
 10
0.0
 20
5.0
 30
0.0
 11
0.0
 21
9.5
 31
0.0
  0
LINE
  5
D0
330
C8
100
AcDbEntity
  8
FORMAT
 62
     0
100
AcDbLine
 10
-5.0
 20
0.0
 30
0.0
 11
-9.5
 21
0.0
 31
0.0
  0
LINE
  5
D1
330
C8
100
AcDbEntity
  8
FORMAT
 62
     0
100
AcDbLine
 10
0.0
 20
-5.0
 30
0.0
 11
0.0
 21
-9.5
 31
0.0
  0
LINE
  5
D2
330
C8
100
AcDbEntity
  8
FORMAT
 62
     0
100
AcDbLine
 10
5.0
 20
0.0
 30
0.0
 11
9.5
 21
0.0
 31
0.0
  0
ENDBLK
  5
CA
330
C8
100
AcDbEntity
  8
0
100
AcDbBlockEnd
  0
BLOCK
  5
D5
330
D4
100
AcDbEntity
  8
0
100
AcDbBlockBegin
  2
SW_CENTERMARKSYMBOL_2
 70
     0
 10
0.0
 20
0.0
 30
0.0
  3
SW_CENTERMARKSYMBOL_2
  1

  0
LINE
  5
D7
330
D4
100
AcDbEntity
  8
FORMAT
 62
     0
100
AcDbLine
 10
0.0
 20
0.0
 30
0.0
 11
0.0
 21
2.5
 31
0.0
  0
LINE
  5
D8
330
D4
100
AcDbEntity
  8
FORMAT
 62
     0
100
AcDbLine
 10
0.0
 20
0.0
 30
0.0
 11
-2.5
 21
0.0
 31
0.0
  0
LINE
  5
D9
330
D4
100
AcDbEntity
  8
FORMAT
 62
     0
100
AcDbLine
 10
0.0
 20
0.0
 30
0.0
 11
0.0
 21
-2.5
 31
0.0
  0
LINE
  5
DA
330
D4
100
AcDbEntity
  8
FORMAT
 62
     0
100
AcDbLine
 10
0.0
 20
0.0
 30
0.0
 11
2.5
 21
0.0
 31
0.0
  0
LINE
  5
DB
330
D4
100
AcDbEntity
  8
FORMAT
 62
     0
100
AcDbLine
 10
0.0
 20
5.0
 30
0.0
 11
0.0
 21
9.5
 31
0.0
  0
LINE
  5
DC
330
D4
100
AcDbEntity
  8
FORMAT
 62
     0
100
AcDbLine
 10
-5.0
 20
0.0
 30
0.0
 11
-9.5
 21
0.0
 31
0.0
  0
LINE
  5
DD
330
D4
100
AcDbEntity
  8
FORMAT
 62
     0
100
AcDbLine
 10
0.0
 20
-5.0
 30
0.0
 11
0.0
 21
-9.5
 31
0.0
  0
LINE
  5
DE
330
D4
100
AcDbEntity
  8
FORMAT
 62
     0
100
AcDbLine
 10
5.0
 20
0.0
 30
0.0
 11
9.5
 21
0.0
 31
0.0
  0
ENDBLK
  5
D6
330
D4
100
AcDbEntity
  8
0
100
AcDbBlockEnd
  0
ENDSEC
  0
SECTION
  2
ENTITIES
  0
LINE
  5
83
330
1F
100
AcDbEntity
  8
0
  6
Continuous
 62
     7
370
    25
100
AcDbLine
 10
129.1701403815
 20
92.628574174
 30
0.0
 11
129.1701403815
 21
64.6754170122
 31
0.0
  0
LINE
  5
84
330
1F
100
AcDbEntity
  8
0
  6
Continuous
 62
     7
370
    25
100
AcDbLine
 10
143.1701403815
 20
64.6754170122
 30
0.0
 11
143.1701403815
 21
92.6301051874
 31
0.0
  0
LINE
  5
85
330
1F
100
AcDbEntity
  8
0
  6
Continuous
 62
     7
370
    25
100
AcDbLine
 10
129.1701403815
 20
92.6354489611
 30
0.0
 11
129.1701403815
 21
92.628574174
 31
0.0
  0
LINE
  5
86
330
1F
100
AcDbEntity
  8
0
  6
Continuous
 62
     7
370
    25
100
AcDbLine
 10
143.1701403815
 20
92.6301051874
 30
0.0
 11
143.1701403815
 21
92.6354489611
 31
0.0
  0
CIRCLE
  5
87
330
1F
100
AcDbEntity
  8
0
  6
Continuous
 62
     7
370
    25
100
AcDbCircle
 10
136.1701403815
 20
117.6754170122
 30
0.0
 40
26.0
  0
CIRCLE
  5
88
330
1F
100
AcDbEntity
  8
0
  6
Continuous
 62
     7
370
    25
100
AcDbCircle
 10
136.1701403815
 20
117.6754170122
 30
0.0
 40
19.99999999999999
  0
LINE
  5
89
330
1F
100
AcDbEntity
  8
0
  6
Continuous
 62
     7
370
    25
100
AcDbLine
 10
136.1701403815
 20
64.6754170122
 30
0.0
 11
143.1701403815
 21
64.6754170122
 31
0.0
  0
LINE
  5
8A
330
1F
100
AcDbEntity
  8
0
  6
Continuous
 62
     7
370
    25
100
AcDbLine
 10
129.1701403815
 20
64.6754170122
 30
0.0
 11
136.1701403815
 21
64.6754170122
 31
0.0
  0
CIRCLE
  5
8B
330
1F
100
AcDbEntity
  8
0
  6
Continuous
 62
     7
370
    25
100
AcDbCircle
 10
136.1701403815
 20
117.6754170122
 30
0.0
 40
19.41421356237308
  0
CIRCLE
  5
8C
330
1F
100
AcDbEntity
  8
0
  6
Continuous
 62
     7
370
    25
100
AcDbCircle
 10
136.1701403815
 20
117.6754170122
 30
0.0
 40
16.58578643762691
  0
CIRCLE
  5
8D
330
1F
100
AcDbEntity
  8
0
  6
Continuous
 62
     7
370
    25
100
AcDbCircle
 10
136.1701403815
 20
117.6754170122
 30
0.0
 40
15.99999999999999
  0
INSERT
  5
99
330
1F
100
AcDbEntity
  8
FORMAT
 62
     7
100
AcDbBlockReference
  2
SW_CENTERMARKSYMBOL_0
 10
136.1701403815
 20
117.6754170122
 30
0.0
  0
ARC
  5
9A
330
1F
100
AcDbEntity
  8
0
  6
Continuous
 62
     7
370
    25
100
AcDbCircle
 10
34.5947543927
 20
141.6754170122
 30
0.0
 40
1.999999999999972
100
AcDbArc
 50
45.0
 51
90.0
  0
ARC
  5
9B
330
1F
100
AcDbEntity
  8
0
  6
Continuous
 62
     7
370
    25
100
AcDbCircle
 10
34.5947543927
 20
93.6754170122
 30
0.0
 40
2.000000000000001
100
AcDbArc
 50
270.0
 51
315.0
  0
LINE
  5
9C
330
1F
100
AcDbEntity
  8
0
  6
Continuous
 62
     7
370
    25
100
AcDbLine
 10
34.5947543927
 20
143.6754170122
 30
0.0
 11
-10.5768184825
 21
143.6754170122
 31
0.0
  0
LINE
  5
9D
330
1F
100
AcDbEntity
  8
0
  6
Continuous
 62
     7
370
    25
100
AcDbLine
 10
4.4118638246
 20
91.6754170122
 30
0.0
 11
34.5947543927
 21
91.6754170122
 31
0.0
  0
LINE
  5
9E
330
1F
100
AcDbEntity
  8
0
  6
Continuous
 62
     7
370
    25
100
AcDbLine
 10
-10.5768184825
 20
91.6754170122
 30
0.0
 11
-9.5768184825
 21
91.6754170122
 31
0.0
  0
LINE
  5
9F
330
1F
100
AcDbEntity
  8
0
  6
Continuous
 62
     7
370
    25
100
AcDbLine
 10
36.0089679551
 20
92.2612034499
 30
0.0
 11
38.8373950799
 21
95.0896305746
 31
0.0
  0
LINE
  5
A0
330
1F
100
AcDbEntity
  8
0
  6
Continuous
 62
     7
370
    25
100
AcDbLine
 10
38.8373950799
 20
140.2612034499
 30
0.0
 11
36.0089679551
 21
143.0896305746
 31
0.0
  0
ARC
  5
A1
330
1F
100
AcDbEntity
  8
0
  6
Continuous
 62
     7
370
    25
100
AcDbCircle
 10
40.2516086422
 20
141.6754170122
 30
0.0
 40
2.000000000000006
100
AcDbArc
 50
225.0
 51
270.0
  0
ARC
  5
A2
330
1F
100
AcDbEntity
  8
0
  6
Continuous
 62
     7
370
    25
100
AcDbCircle
 10
40.2516086422
 20
93.6754170122
 30
0.0
 40
2.0
100
AcDbArc
 50
90.0
 51
135.0
  0
LINE
  5
A3
330
1F
100
AcDbEntity
  8
0
  6
Continuous
 62
     7
370
    25
100
AcDbLine
 10
80.4231815175
 20
139.6754170122
 30
0.0
 11
40.2516086422
 21
139.6754170122
 31
0.0
  0
LINE
  5
A4
330
1F
100
AcDbEntity
  8
0
  6
Continuous
 62
     7
370
    25
100
AcDbLine
 10
79.4187178312
 20
95.6754170122
 30
0.0
 11
80.4231815175
 21
95.6754170122
 31
0.0
  0
LINE
  5
A5
330
1F
100
AcDbEntity
  8
0
  6
Continuous
 62
     7
370
    25
100
AcDbLine
 10
40.2516086422
 20
95.6754170122
 30
0.0
 11
65.4231815175
 21
95.6754170122
 31
0.0
  0
LINE
  5
A6
330
1F
100
AcDbEntity
  8
0
  6
Continuous
 62
     7
370
    25
100
AcDbLine
 10
65.4231815175
 20
95.6754170122
 30
0.0
 11
65.4231815175
 21
76.6754170122
 31
0.0
  0
LINE
  5
A7
330
1F
100
AcDbEntity
  8
0
  6
Continuous
 62
     7
370
    25
100
AcDbLine
 10
79.4231815175
 20
76.6754170122
 30
0.0
 11
79.4231815175
 21
95.6768232585
 31
0.0
  0
LINE
  5
A8
330
1F
100
AcDbEntity
  8
0
  6
Continuous
 62
     7
370
    25
100
AcDbLine
 10
-9.5768184825
 20
91.6754170122
 30
0.0
 11
-9.5768184825
 21
64.6754170122
 31
0.0
  0
LINE
  5
A9
330
1F
100
AcDbEntity
  8
0
  6
Continuous
 62
     7
370
    25
100
AcDbLine
 10
4.4231815175
 20
64.6754170122
 30
0.0
 11
4.4231815175
 21
91.6784423382
 31
0.0
  0
LINE
  5
AA
330
1F
100
AcDbEntity
  8
0
  6
Continuous
 62
     7
370
    25
100
AcDbLine
 10
-10.5768184825
 20
143.6754170122
 30
0.0
 11
-10.5768184825
 21
91.6754170122
 31
0.0
  0
SPLINE
  5
AB
330
1F
100
AcDbEntity
  8
0
  6
Continuous
 62
     7
370
    25
100
AcDbSpline
210
0.0
220
0.0
230
1.0
 70
     8
 71
     3
 72
    27
 73
    23
 74
     0
 42
0.00000001
 43
0.00000001
 40
0.0
 40
0.0
 40
0.0
 40
0.0
 40
0.0073045518332295
 40
0.060680249718922
 40
0.1116410447182826
 40
0.1640261496819331
 40
0.2160213579243271
 40
0.2694418687074532
 40
0.3228892994219861
 40
0.3779007948775953
 40
0.4309828043110758
 40
0.4857098993649916
 40
0.5370462990690051
 40
0.5898987227986322
 40
0.6408800816072934
 40
0.6932582501313602
 40
0.7457678917036193
 40
0.7997350271708341
 40
0.8533260414361717
 40
0.908526053965044
 40
0.9537567735828311
 40
1.0
 40
1.0
 40
1.0
 40
1.0
 10
4.411863824649961
 20
91.67845204845004
 30
0.0
 10
4.4154990462913
 20
91.67747731806978
 30
0.0
 10
4.445697498162988
 20
91.66938005430423
 30
0.0
 10
4.318598753504411
 20
91.70366292573564
 30
0.0
 10
4.022509455724979
 20
91.78127507570973
 30
0.0
 10
3.538197049338332
 20
91.9015524482997
 30
0.0
 10
2.888232455843124
 20
92.04925236386211
 30
0.0
 10
2.084487521607163
 20
92.21015753918589
 30
0.0
 10
1.134275071475614
 20
92.36853549339322
 30
0.0
 10
0.0768532444167247
 20
92.50324852141544
 30
0.0
 10
-1.068708959454483
 20
92.59908749936804
 30
0.0
 10
-2.234865378790557
 20
92.6423336316084
 30
0.0
 10
-3.408515005557736
 20
92.63040384160209
 30
0.0
 10
-4.531054825058861
 20
92.56732906482009
 30
0.0
 10
-5.60497139258636
 20
92.45991191472285
 30
0.0
 10
-6.593810931283119
 20
92.32102175565451
 30
0.0
 10
-7.490705889472545
 20
92.16225056369639
 30
0.0
 10
-8.258398926996396
 20
92.00194124076772
 30
0.0
 10
-8.879305692137095
 20
91.85616047086732
 30
0.0
 10
-9.29240959596645
 20
91.75111879589318
 30
0.0
 10
-9.534008426414205
 20
91.68700166126183
 30
0.0
 10
-9.562443549588302
 20
91.67930695231021
 30
0.0
 10
-9.576818482518789
 20
91.67541701223782
 30
0.0
  0
LINE
  5
AC
330
1F
100
AcDbEntity
  8
0
  6
Continuous
 62
     7
370
    25
100
AcDbLine
 10
80.4231815175
 20
139.6754170122
 30
0.0
 11
80.4231815175
 21
95.6754170122
 31
0.0
  0
SPLINE
  5
AD
330
1F
100
AcDbEntity
  8
0
  6
Continuous
 62
     7
370
    25
100
AcDbSpline
210
0.0
220
0.0
230
1.0
 70
     8
 71
     3
 72
    27
 73
    23
 74
     0
 42
0.00000001
 43
0.00000001
 40
0.0
 40
0.0
 40
0.0
 40
0.0
 40
0.0026160515322937
 40
0.0556780802630228
 40
0.1059001752218258
 40
0.1575133375507164
 40
0.2090209802033005
 40
0.2619079544976709
 40
0.3154822174549664
 40
0.3706154887078399
 40
0.4239207236444003
 40
0.4789230844907442
 40
0.5297639097279441
 40
0.5821307240020356
 40
0.6322524185796025
 40
0.6837215977501602
 40
0.7358729474126229
 40
0.7894372308498403
 40
0.843292803280818
 40
0.8987738759031307
 40
0.9486847287901331
 40
1.0
 40
1.0
 40
1.0
 40
1.0
 10
79.4187178311968
 20
95.67683004621124
 30
0.0
 10
79.42019408733638
 20
95.67636275173683
 30
0.0
 10
79.45161361665906
 20
95.66641720634857
 30
0.0
 10
79.33652114764763
 20
95.70309990414327
 30
0.0
 10
79.06383397248878
 20
95.78796692074872
 30
0.0
 10
78.60423183128978
 20
95.92419193728733
 30
0.0
 10
77.98214762076141
 20
96.09413744081876
 30
0.0
 10
77.2035018360585
 20
96.28334694515469
 30
0.0
 10
76.27388944422093
 20
96.473820465972
 30
0.0
 10
75.22787261952482
 20
96.64041991301991
 30
0.0
 10
74.0865215361253
 20
96.76332112805872
 30
0.0
 10
72.92231530707141
 20
96.82382997711885
 30
0.0
 10
71.75086869341618
 20
96.81834952974006
 30
0.0
 10
70.63468836387572
 20
96.7517393415934
 30
0.0
 10
69.56572287491547
 20
96.63208145041018
 30
0.0
 10
68.57556740363236
 20
96.4737267116443
 30
0.0
 10
67.66793840440445
 20
96.28893673247586
 30
0.0
 10
66.8767849151881
 20
96.09766132345402
 30
0.0
 10
66.22370852169361
 20
95.91913167777992
 30
0.0
 10
65.76266103512991
 20
95.78198044100674
 30
0.0
 10
65.47602082695083
 20
95.69233125005371
 30
0.0
 10
65.44095678097949
 20
95.68110700018558
 30
0.0
 10
65.42318151748121
 20
95.6754170122378
 30
0.0
  0
LINE
  5
AE
330
1F
100
AcDbEntity
  8
0
  6
Continuous
 62
     7
370
    25
100
AcDbLine
 10
65.4231815175
 20
76.6754170122
 30
0.0
 11
79.4231815175
 21
76.6754170122
 31
0.0
  0
LINE
  5
AF
330
1F
100
AcDbEntity
  8
0
  6
Continuous
 62
     7
370
    25
100
AcDbLine
 10
-9.5768184825
 20
64.6754170122
 30
0.0
 11
4.4231815175
 21
64.6754170122
 31
0.0
  0
LINE
  5
B0
330
1F
100
AcDbEntity
  8
0
  6
Continuous
 62
     1
370
    25
100
AcDbLine
 10
36.0089679551
 20
143.0896305746
 30
0.0
 11
36.0089679551
 21
92.2612034499
 31
0.0
  0
LINE
  5
B1
330
1F
100
AcDbEntity
  8
0
  6
Continuous
 62
     1
370
    25
100
AcDbLine
 10
34.5947543927
 20
143.6754170122
 30
0.0
 11
34.5947543927
 21
91.6754170122
 31
0.0
  0
LINE
  5
B2
330
1F
100
AcDbEntity
  8
0
  6
Continuous
 62
     1
370
    25
100
AcDbLine
 10
38.8373950799
 20
140.2612034499
 30
0.0
 11
38.8373950799
 21
95.0896305746
 31
0.0
  0
LINE
  5
B3
330
1F
100
AcDbEntity
  8
0
  6
Continuous
 62
     1
370
    25
100
AcDbLine
 10
40.2516086422
 20
139.6754170122
 30
0.0
 11
40.2516086422
 21
95.6754170122
 31
0.0
  0
ARC
  5
B4
330
1F
100
AcDbEntity
  8
0
  6
Continuous
 62
     7
370
    25
100
AcDbCircle
 10
160.1701403815
 20
225.1235605829
 30
0.0
 40
2.0
100
AcDbArc
 50
315.0
 51
0.0
  0
ARC
  5
B5
330
1F
100
AcDbEntity
  8
0
  6
Continuous
 62
     7
370
    25
100
AcDbCircle
 10
112.1701403815
 20
225.1235605829
 30
0.0
 40
2.0
100
AcDbArc
 50
180.0
 51
225.0
  0
LINE
  5
B6
330
1F
100
AcDbEntity
  8
0
  6
Continuous
 62
     7
370
    25
100
AcDbLine
 10
162.1701403815
 20
225.1235605829
 30
0.0
 11
162.1701403815
 21
270.2951334582
 31
0.0
  0
LINE
  5
B7
330
1F
100
AcDbEntity
  8
0
  6
Continuous
 62
     7
370
    25
100
AcDbLine
 10
110.1701403815
 20
270.2951334582
 30
0.0
 11
110.1701403815
 21
225.1235605829
 31
0.0
  0
LINE
  5
B8
330
1F
100
AcDbEntity
  8
0
  6
Continuous
 62
     7
370
    25
100
AcDbLine
 10
110.7559268191
 20
223.7093470206
 30
0.0
 11
113.5843539439
 21
220.8809198958
 31
0.0
  0
LINE
  5
B9
330
1F
100
AcDbEntity
  8
0
  6
Continuous
 62
     7
370
    25
100
AcDbLine
 10
158.7559268191
 20
220.8809198958
 30
0.0
 11
161.5843539439
 21
223.7093470206
 31
0.0
  0
ARC
  5
BA
330
1F
100
AcDbEntity
  8
0
  6
Continuous
 62
     7
370
    25
100
AcDbCircle
 10
160.1701403815
 20
219.4667063334
 30
0.0
 40
2.0
100
AcDbArc
 50
135.0
 51
180.0
  0
ARC
  5
BB
330
1F
100
AcDbEntity
  8
0
  6
Continuous
 62
     7
370
    25
100
AcDbCircle
 10
112.1701403815
 20
219.4667063334
 30
0.0
 40
1.999999999999986
100
AcDbArc
 50
0.0
 51
45.0
  0
LINE
  5
BC
330
1F
100
AcDbEntity
  8
0
  6
Continuous
 62
     7
370
    25
100
AcDbLine
 10
158.1701403815
 20
179.2951334582
 30
0.0
 11
158.1701403815
 21
219.4667063334
 31
0.0
  0
LINE
  5
BD
330
1F
100
AcDbEntity
  8
0
  6
Continuous
 62
     7
370
    25
100
AcDbLine
 10
114.1701403815
 20
219.4667063334
 30
0.0
 11
114.1701403815
 21
179.2951334582
 31
0.0
  0
CIRCLE
  5
BE
330
1F
100
AcDbEntity
  8
0
  6
Continuous
 62
     7
370
    25
100
AcDbCircle
 10
136.1701403815
 20
262.2951334582
 30
0.0
 40
7.0
  0
CIRCLE
  5
BF
330
1F
100
AcDbEntity
  8
0
  6
Continuous
 62
     7
370
    25
100
AcDbCircle
 10
136.1701403815
 20
262.2951334582
 30
0.0
 40
5.000000000000057
  0
CIRCLE
  5
C0
330
1F
100
AcDbEntity
  8
0
  6
Continuous
 62
     7
370
    25
100
AcDbCircle
 10
136.1701403815
 20
187.2951334582
 30
0.0
 40
7.000000000000028
  0
CIRCLE
  5
C1
330
1F
100
AcDbEntity
  8
0
  6
Continuous
 62
     7
370
    25
100
AcDbCircle
 10
136.1701403815
 20
187.2951334582
 30
0.0
 40
5.000000000000028
  0
LINE
  5
C2
330
1F
100
AcDbEntity
  8
0
  6
Continuous
 62
     7
370
    25
100
AcDbLine
 10
162.1701403815
 20
270.2951334582
 30
0.0
 11
110.1701403815
 21
270.2951334582
 31
0.0
  0
LINE
  5
C3
330
1F
100
AcDbEntity
  8
0
  6
Continuous
 62
     7
370
    25
100
AcDbLine
 10
158.1701403815
 20
179.2951334582
 30
0.0
 11
114.1701403815
 21
179.2951334582
 31
0.0
  0
LINE
  5
C4
330
1F
100
AcDbEntity
  8
0
  6
Continuous
 62
     1
370
    25
100
AcDbLine
 10
161.5843539439
 20
223.7093470206
 30
0.0
 11
110.7559268191
 21
223.7093470206
 31
0.0
  0
LINE
  5
C5
330
1F
100
AcDbEntity
  8
0
  6
Continuous
 62
     1
370
    25
100
AcDbLine
 10
162.1701403815
 20
225.1235605829
 30
0.0
 11
110.1701403815
 21
225.1235605829
 31
0.0
  0
LINE
  5
C6
330
1F
100
AcDbEntity
  8
0
  6
Continuous
 62
     1
370
    25
100
AcDbLine
 10
158.7559268191
 20
220.8809198958
 30
0.0
 11
113.5843539439
 21
220.8809198958
 31
0.0
  0
LINE
  5
C7
330
1F
100
AcDbEntity
  8
0
  6
Continuous
 62
     1
370
    25
100
AcDbLine
 10
158.1701403815
 20
219.4667063334
 30
0.0
 11
114.1701403815
 21
219.4667063334
 31
0.0
  0
INSERT
  5
D3
330
1F
100
AcDbEntity
  8
FORMAT
 62
     7
100
AcDbBlockReference
  2
SW_CENTERMARKSYMBOL_1
 10
136.1701403815
 20
187.2951334582
 30
0.0
  0
INSERT
  5
DF
330
1F
100
AcDbEntity
  8
FORMAT
 62
     7
100
AcDbBlockReference
  2
SW_CENTERMARKSYMBOL_2
 10
136.1701403815
 20
262.2951334582
 30
0.0
  0
ARC
  5
E0
330
1F
100
AcDbEntity
  8
0
  6
Continuous
 62
     7
370
    25
100
AcDbCircle
 10
233.4090454685
 20
93.6754170122
 30
0.0
 40
2.0
100
AcDbArc
 50
225.0
 51
270.0
  0
ARC
  5
E1
330
1F
100
AcDbEntity
  8
0
  6
Continuous
 62
     7
370
    25
100
AcDbCircle
 10
233.4090454685
 20
141.6754170122
 30
0.0
 40
1.999999999999972
100
AcDbArc
 50
90.0
 51
135.0
  0
LINE
  5
E2
330
1F
100
AcDbEntity
  8
0
  6
Continuous
 62
     7
370
    25
100
AcDbLine
 10
277.5806183438
 20
91.6754170122
 30
0.0
 11
278.5806183438
 21
91.6754170122
 31
0.0
  0
LINE
  5
E3
330
1F
100
AcDbEntity
  8
0
  6
Continuous
 62
     7
370
    25
100
AcDbLine
 10
233.4090454685
 20
91.6754170122
 30
0.0
 11
263.5919360366
 21
91.6754170122
 31
0.0
  0
LINE
  5
E4
330
1F
100
AcDbEntity
  8
0
  6
Continuous
 62
     7
370
    25
100
AcDbLine
 10
278.5806183438
 20
143.6754170122
 30
0.0
 11
233.4090454685
 21
143.6754170122
 31
0.0
  0
LINE
  5
E5
330
1F
100
AcDbEntity
  8
0
  6
Continuous
 62
     7
370
    25
100
AcDbLine
 10
231.9948319061
 20
143.0896305746
 30
0.0
 11
229.1664047814
 21
140.2612034499
 31
0.0
  0
LINE
  5
E6
330
1F
100
AcDbEntity
  8
0
  6
Continuous
 62
     7
370
    25
100
AcDbLine
 10
229.1664047814
 20
95.0896305746
 30
0.0
 11
231.9948319061
 21
92.2612034499
 31
0.0
  0
ARC
  5
E7
330
1F
100
AcDbEntity
  8
0
  6
Continuous
 62
     7
370
    25
100
AcDbCircle
 10
227.752191219
 20
93.6754170122
 30
0.0
 40
2.000000000000006
100
AcDbArc
 50
45.0
 51
90.0
  0
ARC
  5
E8
330
1F
100
AcDbEntity
  8
0
  6
Continuous
 62
     7
370
    25
100
AcDbCircle
 10
227.752191219
 20
141.6754170122
 30
0.0
 40
2.000000000000016
100
AcDbArc
 50
270.0
 51
315.0
  0
LINE
  5
E9
330
1F
100
AcDbEntity
  8
0
  6
Continuous
 62
     7
370
    25
100
AcDbLine
 10
202.5806183438
 20
95.6754170122
 30
0.0
 11
227.752191219
 21
95.6754170122
 31
0.0
  0
LINE
  5
EA
330
1F
100
AcDbEntity
  8
0
  6
Continuous
 62
     7
370
    25
100
AcDbLine
 10
187.5806183438
 20
95.6754170122
 30
0.0
 11
188.5850820301
 21
95.6754170122
 31
0.0
  0
LINE
  5
EB
330
1F
100
AcDbEntity
  8
0
  6
Continuous
 62
     7
370
    25
100
AcDbLine
 10
227.752191219
 20
139.6754170122
 30
0.0
 11
187.5806183438
 21
139.6754170122
 31
0.0
  0
LINE
  5
EC
330
1F
100
AcDbEntity
  8
0
  6
Continuous
 62
     7
370
    25
100
AcDbLine
 10
188.5806183438
 20
95.6768232585
 30
0.0
 11
188.5806183438
 21
76.6754170122
 31
0.0
  0
LINE
  5
ED
330
1F
100
AcDbEntity
  8
0
  6
Continuous
 62
     7
370
    25
100
AcDbLine
 10
202.5806183438
 20
76.6754170122
 30
0.0
 11
202.5806183438
 21
95.6754170122
 31
0.0
  0
LINE
  5
EE
330
1F
100
AcDbEntity
  8
0
  6
Continuous
 62
     7
370
    25
100
AcDbLine
 10
263.5806183438
 20
91.6784423382
 30
0.0
 11
263.5806183438
 21
64.6754170122
 31
0.0
  0
LINE
  5
EF
330
1F
100
AcDbEntity
  8
0
  6
Continuous
 62
     7
370
    25
100
AcDbLine
 10
277.5806183438
 20
64.6754170122
 30
0.0
 11
277.5806183438
 21
91.6754170122
 31
0.0
  0
LINE
  5
F0
330
1F
100
AcDbEntity
  8
0
  6
Continuous
 62
     7
370
    25
100
AcDbLine
 10
278.5806183438
 20
117.6754170122
 30
0.0
 11
278.5806183438
 21
143.6754170122
 31
0.0
  0
LINE
  5
F1
330
1F
100
AcDbEntity
  8
0
  6
Continuous
 62
     7
370
    25
100
AcDbLine
 10
278.5806183438
 20
91.6754170122
 30
0.0
 11
278.5806183438
 21
117.6754170122
 31
0.0
  0
SPLINE
  5
F2
330
1F
100
AcDbEntity
  8
0
  6
Continuous
 62
     7
370
    25
100
AcDbSpline
210
0.0
220
0.0
230
1.0
 70
     8
 71
     3
 72
    26
 73
    22
 74
     0
 42
0.00000001
 43
0.00000001
 40
0.0
 40
0.0
 40
0.0
 40
0.0
 40
0.0516333363898261
 40
0.1047962893514215
 40
0.1564208821522512
 40
0.2094845500307907
 40
0.2622070182084784
 40
0.3164045673347062
 40
0.3699896842020537
 40
0.4251980407114836
 40
0.4775299627412462
 40
0.5314698748620539
 40
0.5823674886978032
 40
0.6347117607297595
 40
0.6862313439828475
 40
0.7391519265833401
 40
0.7923532634659011
 40
0.8470804023057399
 40
0.9004624333620763
 40
0.955484289074295
 40
1.0
 40
1.0
 40
1.0
 40
1.0
 10
277.580618343771
 20
91.67541701223782
 30
0.0
 10
277.5626463838099
 20
91.6802849920847
 30
0.0
 10
277.5261700518898
 20
91.69016516369975
 30
0.0
 10
277.2333169483317
 20
91.76761422240203
 30
0.0
 10
276.7718193974026
 20
91.88316804064117
 30
0.0
 10
276.1425688609168
 20
92.02829138891583
 30
0.0
 10
275.352189954686
 20
92.18952875067686
 30
0.0
 10
274.4252534805065
 20
92.34835225578868
 30
0.0
 10
273.3718460784817
 20
92.4882819940461
 30
0.0
 10
272.2459915290419
 20
92.5890132450015
 30
0.0
 10
271.06761955123
 20
92.6399302574333
 30
0.0
 10
269.9054631355067
 20
92.63526291443664
 30
0.0
 10
268.7641580231709
 20
92.57770886532376
 30
0.0
 10
267.690928872561
 20
92.47636905956404
 30
0.0
 10
266.6844582348079
 20
92.34002585157742
 30
0.0
 10
265.7786624276994
 20
92.18372230813354
 30
0.0
 10
264.9882537118931
 20
92.02176612909089
 30
0.0
 10
264.3510219194036
 20
91.87395825593106
 30
0.0
 10
263.8900881140685
 20
91.75784750054227
 30
0.0
 10
263.620590526886
 20
91.68622913755037
 30
0.0
 10
263.6007909202104
 20
91.68085534434228
 30
0.0
 10
263.5919360366022
 20
91.67845204845003
 30
0.0
  0
LINE
  5
F3
330
1F
100
AcDbEntity
  8
0
  6
Continuous
 62
     7
370
    25
100
AcDbLine
 10
187.5806183438
 20
117.6754170122
 30
0.0
 11
187.5806183438
 21
139.6754170122
 31
0.0
  0
LINE
  5
F4
330
1F
100
AcDbEntity
  8
0
  6
Continuous
 62
     7
370
    25
100
AcDbLine
 10
187.5806183438
 20
95.6754170122
 30
0.0
 11
187.5806183438
 21
117.6754170122
 31
0.0
  0
SPLINE
  5
F5
330
1F
100
AcDbEntity
  8
0
  6
Continuous
 62
     7
370
    25
100
AcDbSpline
210
0.0
220
0.0
230
1.0
 70
     8
 71
     3
 72
    26
 73
    22
 74
     0
 42
0.00000001
 43
0.00000001
 40
0.0
 40
0.0
 40
0.0
 40
0.0
 40
0.0511331702582496
 40
0.1037933502116473
 40
0.1549148013619595
 40
0.2074417768953689
 40
0.2600413000836436
 40
0.3140886931757428
 40
0.3679559167468816
 40
0.4234801630950366
 40
0.4756383272155059
 40
0.5294418203860598
 40
0.5795304303166954
 40
0.6310342995611095
 40
0.6819291980775327
 40
0.7341721164585325
 40
0.7874318086195184
 40
0.8422062946748827
 40
0.8958262704989401
 40
0.9511281357176448
 40
1.0
 40
1.0
 40
1.0
 40
1.0
 10
202.580618343771
 20
95.6754170122378
 30
0.0
 10
202.5629195816892
 20
95.68108103779448
 30
0.0
 10
202.5269935125293
 20
95.69257823589979
 30
0.0
 10
202.238791261767
 20
95.78272912031224
 30
0.0
 10
201.785328180659
 20
95.91735903744821
 30
0.0
 10
201.1663784221363
 20
96.08725215116263
 30
0.0
 10
200.3870192551055
 20
96.2774478797436
 30
0.0
 10
199.4670990096171
 20
96.46714356349834
 30
0.0
 10
198.4161205873685
 20
96.63636439064784
 30
0.0
 10
197.2893498228001
 20
96.75953874291592
 30
0.0
 10
196.1102289658392
 20
96.82307302883846
 30
0.0
 10
194.9538024974514
 20
96.81991063610143
 30
0.0
 10
193.8222717626526
 20
96.75417876046843
 30
0.0
 10
192.7607480571877
 20
96.63731298977045
 30
0.0
 10
191.7623230851951
 20
96.47901948307536
 30
0.0
 10
190.8553190297313
 20
96.29560761456136
 30
0.0
 10
190.0558269944673
 20
96.10331825112411
 30
0.0
 10
189.4027395624706
 20
95.92525340461708
 30
0.0
 10
188.9224412378997
 20
95.78283003160226
 30
0.0
 10
188.6302241296215
 20
95.69128379753404
 30
0.0
 10
188.5994972020893
 20
95.68144554513255
 30
0.0
 10
188.5850820300554
 20
95.67683004621124
 30
0.0
  0
LINE
  5
F6
330
1F
100
AcDbEntity
  8
0
  6
Continuous
 62
     7
370
    25
100
AcDbLine
 10
188.5806183438
 20
76.6754170122
 30
0.0
 11
202.5806183438
 21
76.6754170122
 31
0.0
  0
LINE
  5
F7
330
1F
100
AcDbEntity
  8
0
  6
Continuous
 62
     7
370
    25
100
AcDbLine
 10
263.5806183438
 20
64.6754170122
 30
0.0
 11
277.5806183438
 21
64.6754170122
 31
0.0
  0
LINE
  5
F8
330
1F
100
AcDbEntity
  8
0
  6
Continuous
 62
     1
370
    25
100
AcDbLine
 10
231.9948319061
 20
117.6754170122
 30
0.0
 11
231.9948319061
 21
143.0896305746
 31
0.0
  0
LINE
  5
F9
330
1F
100
AcDbEntity
  8
0
  6
Continuous
 62
     1
370
    25
100
AcDbLine
 10
231.9948319061
 20
92.2612034499
 30
0.0
 11
231.9948319061
 21
117.6754170122
 31
0.0
  0
LINE
  5
FA
330
1F
100
AcDbEntity
  8
0
  6
Continuous
 62
     1
370
    25
100
AcDbLine
 10
233.4090454685
 20
117.6754170122
 30
0.0
 11
233.4090454685
 21
143.6754170122
 31
0.0
  0
LINE
  5
FB
330
1F
100
AcDbEntity
  8
0
  6
Continuous
 62
     1
370
    25
100
AcDbLine
 10
233.4090454685
 20
91.6754170122
 30
0.0
 11
233.4090454685
 21
117.6754170122
 31
0.0
  0
LINE
  5
FC
330
1F
100
AcDbEntity
  8
0
  6
Continuous
 62
     1
370
    25
100
AcDbLine
 10
229.1664047814
 20
117.6754170122
 30
0.0
 11
229.1664047814
 21
140.2612034499
 31
0.0
  0
LINE
  5
FD
330
1F
100
AcDbEntity
  8
0
  6
Continuous
 62
     1
370
    25
100
AcDbLine
 10
229.1664047814
 20
95.0896305746
 30
0.0
 11
229.1664047814
 21
117.6754170122
 31
0.0
  0
LINE
  5
FE
330
1F
100
AcDbEntity
  8
0
  6
Continuous
 62
     1
370
    25
100
AcDbLine
 10
227.752191219
 20
117.6754170122
 30
0.0
 11
227.752191219
 21
139.6754170122
 31
0.0
  0
LINE
  5
FF
330
1F
100
AcDbEntity
  8
0
  6
Continuous
 62
     1
370
    25
100
AcDbLine
 10
227.752191219
 20
95.6754170122
 30
0.0
 11
227.752191219
 21
117.6754170122
 31
0.0
  0
ARC
  5
100
330
1F
100
AcDbEntity
  8
0
  6
Continuous
 62
     7
370
    25
100
AcDbCircle
 10
112.1701403815
 20
-0.1209667202
 30
0.0
 40
2.0
100
AcDbArc
 50
135.0
 51
180.0
  0
ARC
  5
101
330
1F
100
AcDbEntity
  8
0
  6
Continuous
 62
     7
370
    25
100
AcDbCircle
 10
160.1701403815
 20
-0.1209667202
 30
0.0
 40
2.0
100
AcDbArc
 50
0.0
 51
45.0
  0
LINE
  5
102
330
1F
100
AcDbEntity
  8
0
  6
Continuous
 62
     7
370
    25
100
AcDbLine
 10
110.1701403815
 20
-0.1209667202
 30
0.0
 11
110.1701403815
 21
-45.2925395954
 31
0.0
  0
LINE
  5
103
330
1F
100
AcDbEntity
  8
0
  6
Continuous
 62
     7
370
    25
100
AcDbLine
 10
162.1701403815
 20
-45.2925395954
 30
0.0
 11
162.1701403815
 21
-0.1209667202
 31
0.0
  0
LINE
  5
104
330
1F
100
AcDbEntity
  8
0
  6
Continuous
 62
     7
370
    25
100
AcDbLine
 10
161.5843539439
 20
1.2932468422
 30
0.0
 11
158.7559268191
 21
4.121673967
 31
0.0
  0
LINE
  5
105
330
1F
100
AcDbEntity
  8
0
  6
Continuous
 62
     7
370
    25
100
AcDbLine
 10
113.5843539439
 20
4.121673967
 30
0.0
 11
110.7559268191
 21
1.2932468422
 31
0.0
  0
ARC
  5
106
330
1F
100
AcDbEntity
  8
0
  6
Continuous
 62
     7
370
    25
100
AcDbCircle
 10
112.1701403815
 20
5.5358875293
 30
0.0
 40
1.999999999999989
100
AcDbArc
 50
315.0
 51
0.0
  0
ARC
  5
107
330
1F
100
AcDbEntity
  8
0
  6
Continuous
 62
     7
370
    25
100
AcDbCircle
 10
160.1701403815
 20
5.5358875293
 30
0.0
 40
2.000000000000009
100
AcDbArc
 50
180.0
 51
225.0
  0
LINE
  5
108
330
1F
100
AcDbEntity
  8
0
  6
Continuous
 62
     7
370
    25
100
AcDbLine
 10
114.1701403815
 20
45.7074604046
 30
0.0
 11
114.1701403815
 21
5.5358875293
 31
0.0
  0
LINE
  5
109
330
1F
100
AcDbEntity
  8
0
  6
Continuous
 62
     7
370
    25
100
AcDbLine
 10
158.1701403815
 20
5.5358875293
 30
0.0
 11
158.1701403815
 21
45.7074604046
 31
0.0
  0
LINE
  5
10A
330
1F
100
AcDbEntity
  8
0
  6
Continuous
 62
     7
370
    25
100
AcDbLine
 10
110.1701403815
 20
-45.2925395954
 30
0.0
 11
162.1701403815
 21
-45.2925395954
 31
0.0
  0
LINE
  5
10B
330
1F
100
AcDbEntity
  8
0
  6
Continuous
 62
     7
370
    25
100
AcDbLine
 10
114.1701403815
 20
45.7074604046
 30
0.0
 11
158.1701403815
 21
45.7074604046
 31
0.0
  0
LINE
  5
10C
330
1F
100
AcDbEntity
  8
0
  6
Continuous
 62
     1
370
    25
100
AcDbLine
 10
110.7559268191
 20
1.2932468422
 30
0.0
 11
161.5843539439
 21
1.2932468422
 31
0.0
  0
LINE
  5
10D
330
1F
100
AcDbEntity
  8
0
  6
Continuous
 62
     1
370
    25
100
AcDbLine
 10
110.1701403815
 20
-0.1209667202
 30
0.0
 11
162.1701403815
 21
-0.1209667202
 31
0.0
  0
LINE
  5
10E
330
1F
100
AcDbEntity
  8
0
  6
Continuous
 62
     1
370
    25
100
AcDbLine
 10
113.5843539439
 20
4.121673967
 30
0.0
 11
158.7559268191
 21
4.121673967
 31
0.0
  0
LINE
  5
10F
330
1F
100
AcDbEntity
  8
0
  6
Continuous
 62
     1
370
    25
100
AcDbLine
 10
114.1701403815
 20
5.5358875293
 30
0.0
 11
158.1701403815
 21
5.5358875293
 31
0.0
  0
LINE
  5
110
330
1F
100
AcDbEntity
  8
0
  6
Continuous
 62
     7
370
    25
100
AcDbLine
 10
200.4350792596
 20
7.4693492669
 30
0.0
 11
200.4350792596
 21
-14.9658399508
 31
0.0
  0
LINE
  5
111
330
1F
100
AcDbEntity
  8
0
  6
Continuous
 62
     7
370
    25
100
AcDbLine
 10
214.4350792596
 20
-14.9658399508
 30
0.0
 11
214.4350792596
 21
7.4692947886
 31
0.0
  0
LINE
  5
112
330
1F
100
AcDbEntity
  8
0
  6
Continuous
 62
     7
370
    25
100
AcDbLine
 10
246.7182940313
 20
35.6545066888
 30
0.0
 11
214.7771685344
 21
54.0937259484
 31
0.0
  0
LINE
  5
113
330
1F
100
AcDbEntity
  8
0
  6
Continuous
 62
     7
370
    25
100
AcDbLine
 10
188.7792814858
 20
9.0591851046
 30
0.0
 11
200.4350792596
 21
2.3304362752
 31
0.0
  0
LINE
  5
114
330
1F
100
AcDbEntity
  8
0
  6
Continuous
 62
     7
370
    25
100
AcDbLine
 10
214.4350792596
 20
-5.751591694
 30
0.0
 11
220.7204069828
 21
-9.380034155
 31
0.0
  0
SPLINE
  5
115
330
1F
100
AcDbEntity
  8
0
  6
Continuous
 62
     7
370
    25
100
AcDbSpline
210
0.0
220
0.0
230
1.0
 70
     8
 71
     3
 72
    21
 73
    17
 74
     0
 42
0.00000001
 43
0.00000001
 40
0.0
 40
0.0
 40
0.0
 40
0.0
 40
0.0298992765990681
 40
0.1093981469544415
 40
0.1888290296956894
 40
0.2681051263595079
 40
0.3471189849764139
 40
0.4257475484463926
 40
0.5038628142354427
 40
0.5813478594746359
 40
0.6581158042574404
 40
0.7341274105633052
 40
0.8094027345512107
 40
0.8840239697981178
 40
0.9581293561059712
 40
1.0
 40
1.0
 40
1.0
 40
1.0
 10
252.6332678241002
 20
24.46278952837869
 30
0.0
 10
252.6253649619429
 20
24.6129331411062
 30
0.0
 10
252.5964492631709
 20
25.16229201790079
 30
0.0
 10
252.4821662123054
 20
26.07553306947705
 30
0.0
 10
252.2905321080733
 20
27.19798991482699
 30
0.0
 10
252.0326325586945
 20
28.27540893373963
 30
0.0
 10
251.7140460168777
 20
29.30618049407487
 30
0.0
 10
251.3343924066343
 20
30.28526630017507
 30
0.0
 10
250.8955622464537
 20
31.20868798947317
 30
0.0
 10
250.3995224979387
 20
32.07249809635881
 30
0.0
 10
249.8489122168062
 20
32.87339323706872
 30
0.0
 10
249.2464645332223
 20
33.60824916657483
 30
0.0
 10
248.5959544337564
 20
34.27605273138853
 30
0.0
 10
247.8980317664507
 20
34.87099124685072
 30
0.0
 10
247.2698741205102
 20
35.33070341504657
 30
0.0
 10
246.8591174175587
 20
35.56333889518169
 30
0.0
 10
246.7108225707147
 20
35.64732691692117
 30
0.0
  0
SPLINE
  5
116
330
1F
100
AcDbEntity
  8
0
  6
Continuous
 62
     7
370
    25
100
AcDbSpline
210
0.0
220
0.0
230
1.0
 70
     8
 71
     3
 72
    21
 73
    17
 74
     0
 42
0.00000001
 43
0.00000001
 40
0.0
 40
0.0
 40
0.0
 40
0.0
 40
0.0265419496471917
 40
0.0989508547492284
 40
0.1713652816919747
 40
0.2439810236146617
 40
0.3169856734386304
 40
0.3905305264530226
 40
0.4647187347418973
 40
0.5395985950610743
 40
0.6151634486148907
 40
0.6913586626981459
 40
0.7680944732026901
 40
0.8452618373419746
 40
0.9227477910124114
 40
1.0
 40
1.0
 40
1.0
 40
1.0
 10
220.6913334506319
 20
-9.352291656091113
 30
0.0
 10
220.7850063462258
 20
-9.409736468175659
 30
0.0
 10
221.1342276057436
 20
-9.623896065802496
 30
0.0
 10
221.7804082513709
 20
-9.921962026505657
 30
0.0
 10
222.6248817343414
 20
-10.24470953633477
 30
0.0
 10
223.5046407483724
 20
-10.48971156395563
 30
0.0
 10
224.4142844529898
 20
-10.66230291573131
 30
0.0
 10
225.3528196036256
 20
-10.76026241344267
 30
0.0
 10
226.3178980927958
 20
-10.7833063363591
 30
0.0
 10
227.3071679852
 20
-10.73064088233704
 30
0.0
 10
228.3177822618602
 20
-10.60185144714482
 30
0.0
 10
229.3464905428544
 20
-10.39667332603178
 30
0.0
 10
230.389704133973
 20
-10.11586986990859
 30
0.0
 10
231.4435231470385
 20
-9.758568574637994
 30
0.0
 10
232.5022253953863
 20
-9.333232547669416
 30
0.0
 10
233.2080635895729
 20
-8.990040568477037
 30
0.0
 10
233.5604495734316
 20
-8.818703788693588
 30
0.0
  0
LINE
  5
117
330
1F
100
AcDbEntity
  8
0
  6
Continuous
 62
     7
370
    25
100
AcDbLine
 10
234.7222712289
 20
-8.1901076499
 30
0.0
 11
236.7219461726
 21
-7.0353445748
 31
0.0
  0
LINE
  5
118
330
1F
100
AcDbEntity
  8
0
  6
Continuous
 62
     7
370
    25
100
AcDbLine
 10
252.6899132555
 20
20.6249827604
 30
0.0
 11
252.6899132555
 21
22.9341336088
 31
0.0
  0
LINE
  5
119
330
1F
100
AcDbEntity
  8
0
  6
Continuous
 62
     7
370
    25
100
AcDbLine
 10
277.1240481571
 20
13.4829614109
 30
0.0
 11
252.1037802058
 21
27.9268546523
 31
0.0
  0
LINE
  5
11A
330
1F
100
AcDbEntity
  8
0
  6
Continuous
 62
     7
370
    25
100
AcDbLine
 10
230.1066356777
 20
-10.179911599
 30
0.0
 11
253.4680878486
 21
-23.6661908737
 31
0.0
  0
LINE
  5
11B
330
1F
100
AcDbEntity
  8
0
  6
Continuous
 62
     7
370
    25
100
AcDbLine
 10
253.4680878486
 20
-19.8073838325
 30
0.0
 11
253.4680878486
 21
-35.7826544015
 31
0.0
  0
LINE
  5
11C
330
1F
100
AcDbEntity
  8
0
  6
Continuous
 62
     7
370
    25
100
AcDbLine
 10
267.4680878486
 20
-35.7826544015
 30
0.0
 11
267.4680878486
 21
-19.8073867021
 31
0.0
  0
LWPOLYLINE
  5
11D
330
1F
100
AcDbEntity
  8
0
  6
Continuous
 62
     7
370
    25
100
AcDbPolyline
 90
       56
 70
   128
 43
0.0
 10
202.4853317913
 20
-12.1084115594
 10
203.0818242477
 20
-11.8013147429
 10
203.7350680407
 20
-11.535472352
 10
204.4365471384
 20
-11.3143500488
 10
205.1771166879
 20
-11.1408305007
 10
205.9471222327
 20
-11.0171758004
 10
206.7365255729
 20
-10.944997976
 10
207.5350356286
 20
-10.9252379758
 10
208.3322426002
 20
-10.9581534017
 10
209.1177536757
 20
-11.0433151507
 10
209.8813285168
 20
-11.1796130092
 10
210.6130127578
 20
-11.3652701261
 10
211.3032677756
 20
-11.5978661772
 10
211.9430950404
 20
-11.8743689169
 10
212.5241534255
 20
-12.1911737095
 10
213.038867946
 20
-12.5441505197
 10
213.4805285112
 20
-12.9286977552
 10
213.8433774
 20
-13.3398022547
 10
214.1226843223
 20
-13.7721046422
 10
214.3148080853
 20
-14.219969195
 10
214.4172440618
 20
-14.6775573138
 10
214.4286568423
 20
-15.1389036376
 10
214.3488976437
 20
-15.5979938117
 10
214.1790062492
 20
-16.0488428933
 10
213.9211974528
 20
-16.4855733754
 10
213.5788321865
 20
-16.9024918082
 10
213.1563737052
 20
-17.2941630223
 10
212.6593294012
 20
-17.6554809844
 10
212.0941790071
 20
-17.9817353624
 10
211.4682901227
 20
-18.2686729315
 10
210.7898221666
 20
-18.5125530216
 10
210.0676200063
 20
-18.7101962829
 10
209.3110986515
 20
-18.8590261331
 10
208.5301205149
 20
-18.9571023475
 10
207.7348668408
 20
-19.0031463528
 10
206.9357049772
 20
-18.9965578949
 10
206.143053221
 20
-18.9374228643
 10
205.3672450002
 20
-18.8265121768
 10
204.6183941612
 20
-18.6652717226
 10
203.9062631201
 20
-18.4558035178
 10
203.240135594
 20
-18.2008383006
 10
202.6286955739
 20
-17.9036999326
 10
202.0799141156
 20
-17.5682620669
 10
201.6009454246
 20
-17.1988976491
 10
201.1980335903
 20
-16.8004219091
 10
200.8764311846
 20
-16.3780295876
 10
200.6403307867
 20
-15.9372272146
 10
200.4928103264
 20
-15.4837613231
 10
200.4357929585
 20
-15.0235435343
 10
200.4700219916
 20
-14.5625734912
 10
200.5950511978
 20
-14.106860643
 10
200.8092506303
 20
-13.6623459038
 10
201.1098278718
 20
-13.2348242029
 10
201.4928644384
 20
-12.8298689395
 10
201.9533668627
 20
-12.4527593249
 10
202.4853317913
 20
-12.1084115594
  0
LWPOLYLINE
  5
11E
330
1F
100
AcDbEntity
  8
0
  6
Continuous
 62
     7
370
    25
100
AcDbPolyline
 90
       47
 70
   128
 43
0.0
 10
203.8995453536
 20
-12.9248196712
 10
204.413897312
 20
-12.665910952
 10
204.9845281737
 20
-12.4498455585
 10
205.6008081655
 20
-12.28064838
 10
206.2512571572
 20
-12.1614712399
 10
206.9237585149
 20
-12.0945341828
 10
207.6057848105
 20
-12.0810841195
 10
208.2846311847
 20
-12.1213715991
 10
208.947652014
 20
-12.2146461422
 10
209.5824964747
 20
-12.3591702204
 10
210.1773386158
 20
-12.5522516238
 10
210.7210976537
 20
-12.790293611
 10
211.2036443862
 20
-13.0688619102
 10
211.6159898809
 20
-13.3827673211
 10
211.9504529212
 20
-13.7261623797
 10
212.2008030936
 20
-14.092650286
 10
212.3623768482
 20
-14.4754040636
 10
212.4321643714
 20
-14.8672937338
 10
212.4088656539
 20
-15.2610191336
 10
212.2929147066
 20
-15.6492459037
 10
212.0864714763
 20
-16.024742114
 10
211.7933816097
 20
-16.3805129805
 10
211.4191048167
 20
-16.7099311651
 10
210.9706131655
 20
-17.0068602303
 10
210.4562612072
 20
-17.2657689495
 10
209.8856303455
 20
-17.4818343431
 10
209.2693503536
 20
-17.6510315215
 10
208.6189013619
 20
-17.7702086616
 10
207.9464000043
 20
-17.8371457187
 10
207.2643737086
 20
-17.8505957821
 10
206.5855273344
 20
-17.8103083024
 10
205.9225065052
 20
-17.7170337594
 10
205.2876620444
 20
-17.5725096811
 10
204.6928199033
 20
-17.3794282778
 10
204.1490608655
 20
-17.1413862906
 10
203.6665141329
 20
-16.8628179914
 10
203.2541686383
 20
-16.5489125805
 10
202.919705598
 20
-16.2055175218
 10
202.6693554255
 20
-15.8390296155
 10
202.507781671
 20
-15.4562758379
 10
202.4379941477
 20
-15.0643861677
 10
202.4612928653
 20
-14.6706607679
 10
202.5772438126
 20
-14.2824339978
 10
202.7836870429
 20
-13.9069377875
 10
203.0767769094
 20
-13.551166921
 10
203.4510537025
 20
-13.2217487364
 10
203.8995453536
 20
-12.9248196712
  0
SPLINE
  5
11F
330
1F
100
AcDbEntity
  8
0
  6
Continuous
 62
     7
370
    25
100
AcDbSpline
210
0.0
220
0.0
230
1.0
 70
     8
 71
     3
 72
    12
 73
     8
 74
     0
 42
0.00000001
 43
0.00000001
 40
0.0
 40
0.0
 40
0.0
 40
0.0
 40
0.2065275790298041
 40
0.4191734535155964
 40
0.6256660591659192
 40
0.8379148044078737
 40
1.0
 40
1.0
 40
1.0
 40
1.0
 10
202.4853317912721
 20
9.93819036153086
 30
0.0
 10
202.2292484047705
 20
9.779612031987575
 30
0.0
 10
201.7094952656882
 20
9.45775755444199
 30
0.0
 10
201.1240859935893
 20
8.94468502760077
 30
0.0
 10
200.7031313990277
 20
8.416540177950072
 30
0.0
 10
200.4655003578281
 20
7.924301646049552
 30
0.0
 10
200.4560682239376
 20
7.606516792841476
 30
0.0
 10
200.4519841452588
 20
7.468917140579983
 30
0.0
  0
SPLINE
  5
120
330
1F
100
AcDbEntity
  8
0
  6
Continuous
 62
     7
370
    25
100
AcDbSpline
210
0.0
220
0.0
230
1.0
 70
     8
 71
     3
 72
    22
 73
    18
 74
     0
 42
0.00000001
 43
0.00000001
 40
0.0
 40
0.0
 40
0.0
 40
0.0
 40
0.0259145307660109
 40
0.09717835413186
 40
0.1705276141959884
 40
0.2413042052051293
 40
0.3142742616345739
 40
0.3827233539826311
 40
0.453193828218187
 40
0.5211695288369173
 40
0.5910076576304651
 40
0.6610210852542561
 40
0.7329778539535363
 40
0.8044331236184122
 40
0.8780337418344829
 40
0.9383418608677102
 40
1.0
 40
1.0
 40
1.0
 40
1.0
 10
214.4124838744955
 20
7.469591278963351
 30
0.0
 10
214.4184633292238
 20
7.567186817556895
 30
0.0
 10
214.4408860222814
 20
7.933165808138208
 30
0.0
 10
214.275894826469
 20
8.571026210479838
 30
0.0
 10
213.9197212241877
 20
9.332455379780196
 30
0.0
 10
213.3588368989977
 20
10.02380912697194
 30
0.0
 10
212.6440863745567
 20
10.59812225612438
 30
0.0
 10
211.7841325978837
 20
11.0502305515854
 30
0.0
 10
210.82917867807
 20
11.36386459851669
 30
0.0
 10
209.7805899600006
 20
11.54757888054652
 30
0.0
 10
208.6754195117701
 20
11.60346253654719
 30
0.0
 10
207.5177264198189
 20
11.53773029086437
 30
0.0
 10
206.3486785630938
 20
11.35870488485743
 30
0.0
 10
205.1881490592942
 20
11.07662287819127
 30
0.0
 10
204.1498708994818
 20
10.72872820675811
 30
0.0
 10
203.2326702511427
 20
10.34412853331516
 30
0.0
 10
202.7362761070368
 20
10.07449791457562
 30
0.0
 10
202.4853317912721
 20
9.93819036153086
 30
0.0
  0
LWPOLYLINE
  5
121
330
1F
100
AcDbEntity
  8
0
  6
Continuous
 62
     7
370
    25
100
AcDbPolyline
 90
      108
 70
   128
 43
0.0
 10
183.3934486992
 20
20.9631500728
 10
183.4251367655
 20
22.2273848926
 10
183.520091729
 20
23.5238478957
 10
183.6779862603
 20
24.8480699055
 10
183.8982760643
 20
26.1954860544
 10
184.1802017563
 20
27.5614515198
 10
184.5227914801
 20
28.9412575357
 10
184.9248642579
 20
30.3301476251
 10
185.3850340617
 20
31.7233339959
 10
185.9017145906
 20
33.1160140463
 10
186.47312474
 20
34.5033869195
 10
187.0972947406
 20
35.8806700538
 10
187.7720729492
 20
37.243115669
 10
188.4951332655
 20
38.5860271328
 10
189.2639831508
 20
39.9047751511
 10
190.0759722202
 20
41.1948137264
 10
190.9283013792
 20
42.4516958284
 10
191.8180324727
 20
43.6710887241
 10
192.7420984133
 20
44.8487889137
 10
193.6973137541
 20
45.9807366206
 10
194.6803856701
 20
47.0630297865
 10
195.6879253087
 20
48.0919375227
 10
196.7164594721
 20
49.0639129712
 10
197.7624425899
 20
49.975605531
 10
198.8222689415
 20
50.8238724093
 10
199.8922850862
 20
51.6057894542
 10
200.9688024564
 20
52.3186612357
 10
202.0481100738
 20
52.9600303372
 10
203.1264873416
 20
53.5276858265
 10
204.2002168697
 20
54.0196708774
 10
205.2655972902
 20
54.4342895157
 10
206.318956016
 20
54.770112465
 10
207.3566619013
 20
55.0259820739
 10
208.3751377591
 20
55.201016307
 10
209.3708726919
 20
55.294611785
 10
210.3404341953
 20
55.3064458649
 10
211.2804799899
 20
55.2364777522
 10
212.1877695431
 20
55.0849486414
 10
213.0591752398
 20
54.8523808847
 10
213.891693164
 20
54.5395761915
 10
214.6824534542
 20
54.1476128643
 10
215.4287301956
 20
53.6778420819
 10
216.1279508177
 20
53.1318832414
 10
216.7777049623
 20
52.5116183762
 10
217.3757527922
 20
51.8191856676
 10
217.9200327126
 20
51.0569720748
 10
218.4086684779
 20
50.2276051058
 10
218.8399756594
 20
49.3339437604
 10
219.2124674519
 20
48.3790686744
 10
219.524859799
 20
47.3662715
 10
219.7760758195
 20
46.2990435589
 10
219.9652495198
 20
45.1810638069
 10
220.091728779
 20
44.0161861518
 10
220.1550775968
 20
42.8084261682
 10
220.1550775968
 20
41.561947255
 10
220.091728779
 20
40.2810462832
 10
219.9652495198
 20
38.9701387838
 10
219.7760758195
 20
37.6337437265
 10
219.524859799
 20
36.2764679419
 10
219.2124674519
 20
34.9029902409
 10
218.8399756594
 20
33.5180452856
 10
218.4086684779
 20
32.1264072682
 10
217.9200327126
 20
30.7328734532
 10
217.3757527922
 20
29.3422476404
 10
216.7777049623
 20
27.959323605
 10
216.1279508177
 20
26.5888685726
 10
215.4287301956
 20
25.2356067857
 10
214.6824534542
 20
23.9042032181
 10
213.891693164
 20
22.5992474935
 10
213.0591752398
 20
21.3252380647
 10
212.1877695431
 20
20.0865667062
 10
211.2804799899
 20
18.8875033747
 10
210.3404341953
 20
17.7321814899
 10
209.3708726919
 20
16.6245836858
 10
208.3751377591
 20
15.5685280813
 10
207.3566619013
 20
14.5676551189
 10
206.318956016
 20
13.6254150152
 10
205.2655972902
 20
12.7450558668
 10
204.2002168697
 20
11.9296124542
 10
203.1264873416
 20
11.1818957798
 10
202.0481100738
 20
10.5044833777
 10
200.9688024564
 20
9.899710429
 10
199.8922850862
 20
9.3696617112
 10
198.8222689415
 20
8.916164412
 10
197.7624425899
 20
8.5407818307
 10
196.7164594721
 20
8.2448079887
 10
195.6879253087
 20
8.0292631692
 10
194.6803856701
 20
7.8948903998
 10
193.6973137541
 20
7.8421528913
 10
192.7420984133
 20
7.8712324409
 10
191.8180324727
 20
7.9820288052
 10
190.9283013792
 20
8.1741600463
 10
190.0759722202
 20
8.4469638479
 10
189.2639831508
 20
8.799499799
 10
188.4951332655
 20
9.2305526349
 10
187.7720729492
 20
9.7386364273
 10
187.0972947406
 20
10.321999706
 10
186.47312474
 20
10.9786314971
 10
185.9017145906
 20
11.7062682548
 10
185.3850340617
 20
12.5024016642
 10
184.9248642579
 20
13.3642872888
 10
184.5227914801
 20
14.2889540301
 10
184.1802017563
 20
15.2732143704
 10
183.8982760643
 20
16.3136753603
 10
183.6779862603
 20
17.4067503154
 10
183.520091729
 20
18.5486711797
 10
183.4251367655
 20
19.7355015155
 10
183.3934486992
 20
20.9631500728
  0
LWPOLYLINE
  5
122
330
1F
100
AcDbEntity
  8
0
  6
Continuous
 62
     7
370
    25
100
AcDbPolyline
 90
       94
 70
   128
 43
0.0
 10
187.6360893864
 20
23.4123744082
 10
187.668353047
 20
24.5334890933
 10
187.7649968171
 20
25.6867392187
 10
187.9255797334
 20
26.8668627688
 10
188.1493690928
 20
28.0684751105
 10
188.4353437959
 20
29.2860935622
 10
188.7821990057
 20
30.5141624103
 10
189.1883521013
 20
31.7470782582
 10
189.6519498994
 20
32.9792155937
 10
190.1708771095
 20
34.2049524567
 10
190.7427659859
 20
35.4186960912
 10
191.3650071307
 20
36.6149084632
 10
192.0347614003
 20
37.78813153
 10
192.7489728595
 20
38.933012144
 10
193.5043827254
 20
40.0443264774
 10
194.297544236
 20
41.1170038579
 10
195.1248383771
 20
42.1461499045
 10
195.9824903955
 20
43.12706886
 10
196.8665870215
 20
44.0552850161
 10
197.7730943252
 20
44.9265631353
 10
198.6978761216
 20
45.7369277756
 10
199.6367128434
 20
46.4826814288
 10
200.5853207941
 20
47.1604213921
 10
201.5393716931
 20
47.7670552935
 10
202.494512425
 20
48.2998152016
 10
203.4463849018
 20
48.7562702552
 10
204.3906459475
 20
49.1343377546
 10
205.3229871157
 20
49.4322926645
 10
206.2391543475
 20
49.6487754849
 10
207.1349673818
 20
49.7827984544
 10
208.0063388293
 20
49.8337500569
 10
208.849292822
 20
49.801397812
 10
209.659983154
 20
49.6858893355
 10
210.4347108314
 20
49.4877516661
 10
211.1699409494
 20
49.2078888606
 10
211.8623188217
 20
48.8475778687
 10
212.5086852868
 20
48.4084627069
 10
213.1060911228
 20
47.8925469569
 10
213.6518105039
 20
47.302184624
 10
214.1433534378
 20
46.640069396
 10
214.5784771266
 20
45.909222353
 10
214.955196201
 20
45.1129781823
 10
215.271791778
 20
44.2549699634
 10
215.5268193048
 20
43.3391125912
 10
215.7191151492
 20
42.3695849126
 10
215.8478019094
 20
41.3508106601
 10
215.9122924172
 20
40.2874382671
 10
215.9122924172
 20
39.1843196577
 10
215.8478019094
 20
38.0464881092
 10
215.7191151492
 20
36.8791352861
 10
215.5268193048
 20
35.6875875514
 10
215.271791778
 20
34.4772816642
 10
214.955196201
 20
33.2537399727
 10
214.5784771266
 20
32.0225452169
 10
214.1433534378
 20
30.7893150562
 10
213.6518105039
 20
29.559676437
 10
213.1060911228
 20
28.3392399181
 10
212.5086852868
 20
27.1335740716
 10
211.8623188217
 20
25.9481800742
 10
211.1699409494
 20
24.7884666067
 10
210.4347108314
 20
23.6597251758
 10
209.659983154
 20
22.5671059697
 10
208.849292822
 20
21.5155943592
 10
208.0063388293
 20
20.5099881507
 10
207.1349673818
 20
19.5548756946
 10
206.2391543475
 20
18.65461495
 10
205.3229871157
 20
17.8133136002
 10
204.3906459475
 20
17.0348103103
 10
203.4463849018
 20
16.3226572122
 10
202.494512425
 20
15.6801036973
 10
201.5393716931
 20
15.1100815897
 10
200.5853207941
 20
14.6151917697
 10
199.6367128434
 20
14.197692306
 10
198.6978761216
 20
13.8594881528
 10
197.7730943252
 20
13.6021224582
 10
196.8665870215
 20
13.4267695228
 10
195.9824903955
 20
13.3342294419
 10
195.1248383771
 20
13.3249244545
 10
194.297544236
 20
13.3988970172
 10
193.5043827254
 20
13.5558096102
 10
192.7489728595
 20
13.7949462773
 10
192.0347614003
 20
14.1152158927
 10
191.3650071307
 20
14.5151571397
 10
190.7427659859
 20
14.992945178
 10
190.1708771095
 20
15.5463999704
 10
189.6519498994
 20
16.1729962297
 10
189.1883521013
 20
16.8698749408
 10
188.7821990057
 20
17.6338564061
 10
188.4353437959
 20
18.4614547532
 10
188.1493690928
 20
19.3488938408
 10
187.9255797334
 20
20.2921244879
 10
187.7649968171
 20
21.2868429493
 10
187.668353047
 20
22.3285105529
 10
187.6360893864
 20
23.4123744082
  0
LINE
  5
123
330
1F
100
AcDbEntity
  8
0
  6
Continuous
 62
     7
370
    25
100
AcDbLine
 10
220.7204069828
 20
-9.380034155
 30
0.0
 11
220.6911303295
 21
-9.363056813
 31
0.0
  0
ARC
  5
124
330
1F
100
AcDbEntity
  8
0
  6
Continuous
 62
     7
370
    25
100
AcDbCircle
 10
227.694111756
 20
22.8936269509
 30
0.0
 40
24.99460701201827
100
AcDbArc
 50
353.645100589
 51
3.4937468988
  0
ARC
  5
125
330
1F
100
AcDbEntity
  8
0
  6
Continuous
 62
     7
370
    25
100
AcDbCircle
 10
222.118402897
 20
13.6882951619
 30
0.0
 40
25.2476906171067
100
AcDbArc
 50
297.0437589347
 51
306.1044044521
  0
ARC
  5
126
330
1F
100
AcDbEntity
  8
0
  6
Continuous
 62
     7
370
    25
100
AcDbCircle
 10
225.3781386346
 20
12.5738421828
 30
0.0
 40
22.65396598288311
100
AcDbArc
 50
300.0491471945
 51
303.8252001813
  0
LWPOLYLINE
  5
127
330
1F
100
AcDbEntity
  8
0
  6
Continuous
 62
     7
370
    25
100
AcDbPolyline
 90
       38
 70
   128
 43
0.0
 10
277.1240481571
 20
13.4829614109
 10
277.2998354258
 20
13.3781853236
 10
277.9702613128
 20
12.9127523512
 10
278.5920122423
 20
12.3713693182
 10
279.1625333065
 20
11.7562608836
 10
279.6794801118
 20
11.0699546599
 10
280.140728413
 20
10.3152708266
 10
280.5443828418
 20
9.4953105415
 10
280.8887846956
 20
8.6134431972
 10
281.1725187534
 20
7.6732925758
 10
281.394419091
 20
6.6787219579
 10
281.5535738724
 20
5.6338182475
 10
281.6493290963
 20
4.542875178
 10
281.6812912842
 20
3.4103756686
 10
281.6493290963
 20
2.2409734026
 10
281.5535738724
 20
1.0394737048
 10
281.394419091
 20
-0.1891862048
 10
281.1725187534
 20
-1.4399574991
 10
280.8887846956
 20
-2.7077004906
 10
280.5443828418
 20
-3.9872057514
 10
280.140728413
 20
-5.2732155199
 10
279.6794801118
 20
-6.5604453062
 10
279.1625333065
 20
-7.8436056069
 10
278.5920122423
 20
-9.1174236411
 10
277.9702613128
 20
-10.3766650173
 10
277.2998354258
 20
-11.6161552426
 10
276.5834895051
 20
-12.8308009857
 10
275.8241671698
 20
-14.0156110068
 10
275.0249886381
 20
-15.1657166673
 10
274.1892379062
 20
-16.2763919364
 10
273.320349253
 20
-17.3430728112
 10
272.4218931284
 20
-18.3613760712
 10
271.4975614813
 20
-19.3271172897
 10
270.5511525888
 20
-20.2363280291
 10
269.5865554479
 20
-21.0852721474
 10
268.6077337953
 20
-21.870461151
 10
267.618709819
 20
-22.5886685299
 10
267.4680878486
 20
-22.6915467804
  0
SPLINE
  5
128
330
1F
100
AcDbEntity
  8
0
  6
Continuous
 62
     7
370
    25
100
AcDbSpline
210
0.0
220
0.0
230
1.0
 70
     8
 71
     3
 72
    12
 73
     8
 74
     0
 42
0.00000001
 43
0.00000001
 40
0.0
 40
0.0
 40
0.0
 40
0.0
 40
0.2075794493480601
 40
0.4151856817214054
 40
0.6224719413862234
 40
0.8297982424181545
 40
1.0
 40
1.0
 40
1.0
 40
1.0
 10
255.5183403802632
 20
-17.41095058427768
 30
0.0
 10
255.2608618640994
 20
-17.56988833649965
 30
0.0
 10
254.7458716104982
 20
-17.88778434795354
 30
0.0
 10
254.1606651219355
 20
-18.3873954386983
 30
0.0
 10
253.7447750909677
 20
-18.89041922368665
 30
0.0
 10
253.5013419103237
 20
-19.36507811455199
 30
0.0
 10
253.4895012455558
 20
-19.67025568772346
 30
0.0
 10
253.4841630941034
 20
-19.80783952591304
 30
0.0
  0
SPLINE
  5
129
330
1F
100
AcDbEntity
  8
0
  6
Continuous
 62
     7
370
    25
100
AcDbSpline
210
0.0
220
0.0
230
1.0
 70
     8
 71
     3
 72
    22
 73
    18
 74
     0
 42
0.00000001
 43
0.00000001
 40
0.0
 40
0.0
 40
0.0
 40
0.0
 40
0.0158879137118036
 40
0.0883656155294272
 40
0.1608306352672849
 40
0.2330420972821429
 40
0.3052370161798693
 40
0.3740373062459617
 40
0.4428441887090705
 40
0.5105640573854705
 40
0.5782984036111148
 40
0.6487747989780945
 40
0.7192530092058338
 40
0.7921514802594312
 40
0.8650335212870452
 40
0.9325207234060015
 40
1.0
 40
1.0
 40
1.0
 40
1.0
 10
267.4516095804116
 20
-19.80696102330781
 30
0.0
 10
267.4566408207821
 20
-19.74552203460886
 30
0.0
 10
267.4846236422071
 20
-19.40380982793599
 30
0.0
 10
267.3403705199527
 20
-18.78155822245634
 30
0.0
 10
267.0115539837461
 20
-17.98425346105858
 30
0.0
 10
266.4715553512171
 20
-17.26665355641537
 30
0.0
 10
265.7743432969523
 20
-16.66482864202877
 30
0.0
 10
264.9362688949327
 20
-16.2031045561666
 30
0.0
 10
264.0024480552771
 20
-15.88109638226962
 30
0.0
 10
262.9840737556223
 20
-15.69947590668085
 30
0.0
 10
261.8986307981473
 20
-15.64351467044871
 30
0.0
 10
260.7632492321081
 20
-15.71298208466585
 30
0.0
 10
259.5926734742906
 20
-15.89637083627153
 30
0.0
 10
258.4300656827931
 20
-16.18351032631724
 30
0.0
 10
257.3384306155701
 20
-16.54812601902458
 30
0.0
 10
256.347936951266
 20
-16.96129316908423
 30
0.0
 10
255.7948617446714
 20
-17.26107064707488
 30
0.0
 10
255.5183403802632
 20
-17.41095058427768
 30
0.0
  0
LWPOLYLINE
  5
12A
330
1F
100
AcDbEntity
  8
0
  6
Continuous
 62
     7
370
    25
100
AcDbPolyline
 90
       56
 70
   128
 43
0.0
 10
255.5183403803
 20
-32.9252260101
 10
256.1148328367
 20
-32.6181291936
 10
256.7680766297
 20
-32.3522868027
 10
257.4695557274
 20
-32.1311644995
 10
258.2101252769
 20
-31.9576449514
 10
258.9801308217
 20
-31.8339902511
 10
259.7695341618
 20
-31.7618124267
 10
260.5680442176
 20
-31.7420524265
 10
261.3652511892
 20
-31.7749678524
 10
262.1507622647
 20
-31.8601296014
 10
262.9143371058
 20
-31.9964274599
 10
263.6460213467
 20
-32.1820845769
 10
264.3362763646
 20
-32.4146806279
 10
264.9761036294
 20
-32.6911833677
 10
265.5571620145
 20
-33.0079881602
 10
266.071876535
 20
-33.3609649705
 10
266.5135371002
 20
-33.745512206
 10
266.876385989
 20
-34.1566167054
 10
267.1556929113
 20
-34.5889190929
 10
267.3478166743
 20
-35.0367836457
 10
267.4502526508
 20
-35.4943717645
 10
267.4616654313
 20
-35.9557180884
 10
267.3819062327
 20
-36.4148082624
 10
267.2120148382
 20
-36.8656573441
 10
266.9542060418
 20
-37.3023878262
 10
266.6118407755
 20
-37.7193062589
 10
266.1893822942
 20
-38.110977473
 10
265.6923379902
 20
-38.4722954351
 10
265.1271875961
 20
-38.7985498131
 10
264.5012987117
 20
-39.0854873822
 10
263.8228307556
 20
-39.3293674723
 10
263.1006285953
 20
-39.5270107336
 10
262.3441072405
 20
-39.6758405838
 10
261.5631291039
 20
-39.7739167983
 10
260.7678754298
 20
-39.8199608035
 10
259.9687135662
 20
-39.8133723456
 10
259.17606181
 20
-39.7542373151
 10
258.4002535892
 20
-39.6433266275
 10
257.6514027502
 20
-39.4820861733
 10
256.9392717091
 20
-39.2726179685
 10
256.273144183
 20
-39.0176527513
 10
255.6617041629
 20
-38.7205143834
 10
255.1129227046
 20
-38.3850765177
 10
254.6339540136
 20
-38.0157120998
 10
254.2310421793
 20
-37.6172363598
 10
253.9094397736
 20
-37.1948440384
 10
253.6733393757
 20
-36.7540416653
 10
253.5258189154
 20
-36.3005757738
 10
253.4688015475
 20
-35.8403579851
 10
253.5030305806
 20
-35.3793879419
 10
253.6280597868
 20
-34.9236750938
 10
253.8422592193
 20
-34.4791603545
 10
254.1428364608
 20
-34.0516386536
 10
254.5258730274
 20
-33.6466833903
 10
254.9863754517
 20
-33.2695737756
 10
255.5183403803
 20
-32.9252260101
  0
LWPOLYLINE
  5
12B
330
1F
100
AcDbEntity
  8
0
  6
Continuous
 62
     7
370
    25
100
AcDbPolyline
 90
       47
 70
   128
 43
0.0
 10
256.9325539426
 20
-33.7416341219
 10
257.446905901
 20
-33.4827254027
 10
258.0175367627
 20
-33.2666600092
 10
258.6338167545
 20
-33.0974628307
 10
259.2842657462
 20
-32.9782856906
 10
259.9567671039
 20
-32.9113486335
 10
260.6387933995
 20
-32.8978985702
 10
261.3176397737
 20
-32.9381860498
 10
261.980660603
 20
-33.0314605929
 10
262.6155050637
 20
-33.1759846712
 10
263.2103472048
 20
-33.3690660745
 10
263.7541062427
 20
-33.6071080617
 10
264.2366529752
 20
-33.8856763609
 10
264.6489984698
 20
-34.1995817718
 10
264.9834615102
 20
-34.5429768305
 10
265.2338116826
 20
-34.9094647367
 10
265.3953854372
 20
-35.2922185143
 10
265.4651729604
 20
-35.6841081845
 10
265.4418742429
 20
-36.0778335843
 10
265.3259232956
 20
-36.4660603545
 10
265.1194800653
 20
-36.8415565647
 10
264.8263901987
 20
-37.1973274312
 10
264.4521134056
 20
-37.5267456158
 10
264.0036217545
 20
-37.823674681
 10
263.4892697962
 20
-38.0825834002
 10
262.9186389345
 20
-38.2986487938
 10
262.3023589426
 20
-38.4678459723
 10
261.6519099509
 20
-38.5870231124
 10
260.9794085933
 20
-38.6539601694
 10
260.2973822976
 20
-38.6674102328
 10
259.6185359234
 20
-38.6271227532
 10
258.9555150942
 20
-38.5338482101
 10
258.3206706334
 20
-38.3893241318
 10
257.7258284923
 20
-38.1962427285
 10
257.1820694545
 20
-37.9582007413
 10
256.6995227219
 20
-37.6796324421
 10
256.2871772273
 20
-37.3657270312
 10
255.9527141869
 20
-37.0223319725
 10
255.7023640145
 20
-36.6558440662
 10
255.54079026
 20
-36.2730902887
 10
255.4710027367
 20
-35.8812006184
 10
255.4943014543
 20
-35.4874752186
 10
255.6102524016
 20
-35.0992484485
 10
255.8166956319
 20
-34.7237522382
 10
256.1097854984
 20
-34.3679813718
 10
256.4840622915
 20
-34.0385631872
 10
256.9325539426
 20
-33.7416341219
  0
LWPOLYLINE
  5
12C
330
1F
100
AcDbEntity
  8
0
  6
Continuous
 62
     1
370
    25
100
AcDbPolyline
 90
       55
 70
   128
 43
0.0
 10
246.7182940313
 20
35.6545066888
 10
247.3698556925
 20
35.2386228223
 10
248.0690763147
 20
34.6926639818
 10
248.7188304593
 20
34.0723991166
 10
249.3168782892
 20
33.3799664081
 10
249.8611582096
 20
32.6177528152
 10
250.3497939749
 20
31.7883858462
 10
250.7811011564
 20
30.8947245008
 10
251.1535929488
 20
29.9398494148
 10
251.4659852959
 20
28.9270522404
 10
251.7172013164
 20
27.8598242993
 10
251.9063750168
 20
26.7418445473
 10
252.0328542759
 20
25.5769668922
 10
252.0962030938
 20
24.3692069086
 10
252.0962030938
 20
23.1227279954
 10
252.0328542759
 20
21.8418270236
 10
251.9063750168
 20
20.5309195242
 10
251.7172013164
 20
19.1945244669
 10
251.4659852959
 20
17.8372486824
 10
251.1535929488
 20
16.4637709814
 10
250.7811011564
 20
15.0788260261
 10
250.3497939749
 20
13.6871880086
 10
249.8611582096
 20
12.2936541936
 10
249.3168782892
 20
10.9030283808
 10
248.7188304593
 20
9.5201043454
 10
248.0690763147
 20
8.1496493131
 10
247.3698556925
 20
6.7963875262
 10
246.6235789511
 20
5.4649839585
 10
245.832818661
 20
4.1600282339
 10
245.0003007367
 20
2.8860188051
 10
244.12889504
 20
1.6473474466
 10
243.2216054869
 20
0.4482841151
 10
242.2815596923
 20
-0.7070377697
 10
241.3119981889
 20
-1.8146355738
 10
240.316263256
 20
-2.8706911783
 10
239.2977873983
 20
-3.8715641406
 10
238.2600815129
 20
-4.8138042444
 10
237.2067227872
 20
-5.6941633928
 10
236.1413423667
 20
-6.5096068054
 10
235.0676128385
 20
-7.2573234798
 10
233.9892355708
 20
-7.9347358819
 10
232.9099279533
 20
-8.5395088306
 10
231.8334105831
 20
-9.0695575484
 10
230.7633944385
 20
-9.5230548476
 10
229.7035680868
 20
-9.8984374289
 10
228.657584969
 20
-10.1944112709
 10
227.6290508057
 20
-10.4099560904
 10
226.6215111671
 20
-10.5443288598
 10
225.6384392511
 20
-10.5970663682
 10
224.6832239102
 20
-10.5679868187
 10
223.7591579697
 20
-10.4571904544
 10
222.8694268762
 20
-10.2650592133
 10
222.0170977171
 20
-9.9922554116
 10
221.2051086477
 20
-9.6397194606
 10
220.7204069828
 20
-9.380034155
  0
ARC
  5
12D
330
1F
100
AcDbEntity
  8
0
  6
Continuous
 62
     1
370
    25
100
AcDbCircle
 10
212.4916751384
 20
25.3953288673
 30
0.0
 40
40.38853080840966
100
AcDbArc
 50
307.3520244467
 51
352.5049935331
  0
ARC
  5
12E
330
1F
100
AcDbEntity
  8
0
  6
Continuous
 62
     1
370
    25
100
AcDbCircle
 10
217.7024916699
 20
22.3099910888
 30
0.0
 40
35.02797342524694
100
AcDbArc
 50
305.3903322171
 51
357.2427425936
  0
LWPOLYLINE
  5
12F
330
1F
100
AcDbEntity
  8
0
  6
Continuous
 62
     1
370
    25
100
AcDbPolyline
 90
       35
 70
   128
 43
0.0
 10
252.610546105
 20
24.621317847
 10
252.7669271624
 20
24.0714915558
 10
252.9888275
 20
23.0769209379
 10
253.1479822814
 20
22.0320172275
 10
253.2437375053
 20
20.941074158
 10
253.2756996931
 20
19.8085746486
 10
253.2437375053
 20
18.6391723826
 10
253.1479822814
 20
17.4376726848
 10
252.9888275
 20
16.2090127752
 10
252.7669271624
 20
14.9582414809
 10
252.4831931046
 20
13.6904984894
 10
252.1387912508
 20
12.4109932286
 10
251.7351368219
 20
11.1249834601
 10
251.2738885208
 20
9.8377536738
 10
250.7569417155
 20
8.5545933731
 10
250.1864206513
 20
7.2807753389
 10
249.5646697218
 20
6.0215339627
 10
248.8942438348
 20
4.7820437375
 10
248.1778979141
 20
3.5673979943
 10
247.4185755787
 20
2.3825879732
 10
246.6193970471
 20
1.2324823127
 10
245.7836463152
 20
0.1218070436
 10
244.914757662
 20
-0.9448738312
 10
244.0163015374
 20
-1.9631770911
 10
243.0919698903
 20
-2.9289183097
 10
242.1455609978
 20
-3.8381290491
 10
241.1809638569
 20
-4.6870731673
 10
240.2021422042
 20
-5.472262171
 10
239.213118228
 20
-6.1904695499
 10
238.2179560397
 20
-6.838744036
 10
237.2207449744
 20
-7.4144217304
 10
236.2255827861
 20
-7.9151370499
 10
235.2365588098
 20
-8.3388324479
 10
234.2577371572
 20
-8.683766869
 10
233.3543490476
 20
-8.9340080722
  0
ENDSEC
  0
SECTION
  2
OBJECTS
  0
DICTIONARY
  5
C
330
0
100
AcDbDictionary
281
     1
  3
ACAD_GROUP
350
D
  3
ACAD_LAYOUT
350
1A
  3
ACAD_MLINESTYLE
350
17
  3
ACAD_PLOTSETTINGS
350
19
  3
ACAD_PLOTSTYLENAME
350
E
  3
ACAD_SCALELIST
350
47
  3
DWGPROPS
350
130
  0
DICTIONARY
  5
D
102
{ACAD_REACTORS
330
C
102
}
330
C
100
AcDbDictionary
281
     1
  0
DICTIONARY
  5
1A
102
{ACAD_REACTORS
330
C
102
}
330
C
100
AcDbDictionary
281
     1
  3
Layout1
350
1E
  3
Layout2
350
26
  3
Model
350
22
  0
DICTIONARY
  5
17
102
{ACAD_REACTORS
330
C
102
}
330
C
100
AcDbDictionary
281
     1
  3
Standard
350
18
  0
DICTIONARY
  5
19
102
{ACAD_REACTORS
330
C
102
}
330
C
100
AcDbDictionary
281
     1
  0
ACDBDICTIONARYWDFLT
  5
E
102
{ACAD_REACTORS
330
C
102
}
330
C
100
AcDbDictionary
281
     1
  3
Normal
350
F
100
AcDbDictionaryWithDefault
340
F
  0
DICTIONARY
  5
47
102
{ACAD_REACTORS
330
C
102
}
330
C
100
AcDbDictionary
281
     1
  3
A0
350
48
  3
A1
350
49
  3
A2
350
4A
  3
A3
350
4B
  3
A4
350
4C
  3
A5
350
4D
  3
A6
350
4E
  3
A7
350
4F
  3
A8
350
50
  3
A9
350
51
  3
B0
350
52
  3
B1
350
53
  3
B2
350
54
  3
B3
350
55
  3
B4
350
56
  3
B5
350
57
  3
B6
350
58
  3
B7
350
59
  3
B8
350
5A
  3
B9
350
5B
  3
C0
350
5C
  3
C1
350
5D
  3
C2
350
5E
  3
C3
350
5F
  3
C4
350
60
  3
C5
350
61
  3
C6
350
62
  3
C7
350
63
  3
C8
350
64
  3
C9
350
65
  3
D0
350
66
  3
D1
350
67
  3
D2
350
68
  0
XRECORD
  5
130
102
{ACAD_REACTORS
330
C
102
}
330
C
100
AcDbXrecord
280
     1
  1
DWGPROPS COOKIE
  2

  3

  4

  6

  7

  8
b.kav
  9

300
=
301
=
302
=
303
=
304
=
305
=
306
=
307
=
308
=
309
=
 40
0.0
 41
2460346.545709283
 42
2460346.545709467
  1

 90
        0
  0
LAYOUT
  5
1E
102
{ACAD_REACTORS
330
1A
102
}
330
1A
100
AcDbPlotSettings
  1

  2
none_device
  4

  6

 40
0.0
 41
0.0
 42
0.0
 43
0.0
 44
0.0
 45
0.0
 46
0.0
 47
0.0
 48
0.0
 49
0.0
140
0.0
141
0.0
142
1.0
143
1.0
 70
   688
 72
     1
 73
     0
 74
     5
  7

 75
    16
147
1.0
148
0.0
149
0.0
100
AcDbLayout
  1
Layout1
 70
     1
 71
     1
 10
0.0
 20
0.0
 11
420.0
 21
297.0
 12
0.0
 22
0.0
 32
0.0
 14
1.0000000000E+20
 24
1.0000000000E+20
 34
1.0000000000E+20
 15
-1.0000000000E+20
 25
-1.0000000000E+20
 35
-1.0000000000E+20
146
0.0
 13
0.0
 23
0.0
 33
0.0
 16
1.0
 26
0.0
 36
0.0
 17
0.0
 27
1.0
 37
0.0
 76
     0
330
1B
  0
LAYOUT
  5
26
102
{ACAD_REACTORS
330
1A
102
}
330
1A
100
AcDbPlotSettings
  1

  2
none_device
  4

  6

 40
0.0
 41
0.0
 42
0.0
 43
0.0
 44
0.0
 45
0.0
 46
0.0
 47
0.0
 48
0.0
 49
0.0
140
0.0
141
0.0
142
1.0
143
1.0
 70
   688
 72
     1
 73
     0
 74
     5
  7

 75
    16
147
1.0
148
0.0
149
0.0
100
AcDbLayout
  1
Layout2
 70
     1
 71
     2
 10
0.0
 20
0.0
 11
0.0
 21
0.0
 12
0.0
 22
0.0
 32
0.0
 14
0.0
 24
0.0
 34
0.0
 15
0.0
 25
0.0
 35
0.0
146
0.0
 13
0.0
 23
0.0
 33
0.0
 16
1.0
 26
0.0
 36
0.0
 17
0.0
 27
1.0
 37
0.0
 76
     0
330
23
  0
LAYOUT
  5
22
102
{ACAD_REACTORS
330
1A
102
}
330
1A
100
AcDbPlotSettings
  1

  2
none_device
  4
Letter_(8.50_x_11.00_Inches)
  6

 40
6.35
 41
6.35
 42
6.35000508
 43
6.35000508
 44
215.9
 45
279.4
 46
0.0
 47
0.0
 48
0.0
 49
0.0
140
0.0
141
0.0
142
1.0
143
1.0
 70
  1712
 72
     1
 73
     0
 74
     0
  7

 75
     0
147
1.0
148
0.0
149
0.0
100
AcDbLayout
  1
Model
 70
     1
 71
     0
 10
0.0
 20
0.0
 11
279.4
 21
215.9
 12
0.0
 22
0.0
 32
0.0
 14
0.0
 24
0.0
 34
0.0
 15
279.4
 25
215.9
 35
0.0
146
0.0
 13
0.0
 23
0.0
 33
0.0
 16
1.0
 26
0.0
 36
0.0
 17
0.0
 27
1.0
 37
0.0
 76
     0
330
1F
331
29
  0
MLINESTYLE
  5
18
102
{ACAD_REACTORS
330
17
102
}
330
17
100
AcDbMlineStyle
  2
Standard
 70
     0
  3

 62
   256
 51
90.0
 52
90.0
 71
     2
 49
0.5
 62
   256
  6
BYLAYER
 49
-0.5
 62
   256
  6
BYLAYER
  0
ACDBPLACEHOLDER
  5
F
102
{ACAD_REACTORS
330
E
102
}
330
E
  0
SCALE
  5
48
102
{ACAD_REACTORS
330
47
102
}
330
47
100
AcDbScale
 70
     0
300
1:1
140
1.0
141
1.0
290
     1
  0
SCALE
  5
49
102
{ACAD_REACTORS
330
47
102
}
330
47
100
AcDbScale
 70
     0
300
1:2
140
1.0
141
2.0
290
     0
  0
SCALE
  5
4A
102
{ACAD_REACTORS
330
47
102
}
330
47
100
AcDbScale
 70
     0
300
1:4
140
1.0
141
4.0
290
     0
  0
SCALE
  5
4B
102
{ACAD_REACTORS
330
47
102
}
330
47
100
AcDbScale
 70
     0
300
1:5
140
1.0
141
5.0
290
     0
  0
SCALE
  5
4C
102
{ACAD_REACTORS
330
47
102
}
330
47
100
AcDbScale
 70
     0
300
1:8
140
1.0
141
8.0
290
     0
  0
SCALE
  5
4D
102
{ACAD_REACTORS
330
47
102
}
330
47
100
AcDbScale
 70
     0
300
1:10
140
1.0
141
10.0
290
     0
  0
SCALE
  5
4E
102
{ACAD_REACTORS
330
47
102
}
330
47
100
AcDbScale
 70
     0
300
1:16
140
1.0
141
16.0
290
     0
  0
SCALE
  5
4F
102
{ACAD_REACTORS
330
47
102
}
330
47
100
AcDbScale
 70
     0
300
1:20
140
1.0
141
20.0
290
     0
  0
SCALE
  5
50
102
{ACAD_REACTORS
330
47
102
}
330
47
100
AcDbScale
 70
     0
300
1:30
140
1.0
141
30.0
290
     0
  0
SCALE
  5
51
102
{ACAD_REACTORS
330
47
102
}
330
47
100
AcDbScale
 70
     0
300
1:40
140
1.0
141
40.0
290
     0
  0
SCALE
  5
52
102
{ACAD_REACTORS
330
47
102
}
330
47
100
AcDbScale
 70
     0
300
1:50
140
1.0
141
50.0
290
     0
  0
SCALE
  5
53
102
{ACAD_REACTORS
330
47
102
}
330
47
100
AcDbScale
 70
     0
300
1:100
140
1.0
141
100.0
290
     0
  0
SCALE
  5
54
102
{ACAD_REACTORS
330
47
102
}
330
47
100
AcDbScale
 70
     0
300
2:1
140
2.0
141
1.0
290
     0
  0
SCALE
  5
55
102
{ACAD_REACTORS
330
47
102
}
330
47
100
AcDbScale
 70
     0
300
4:1
140
4.0
141
1.0
290
     0
  0
SCALE
  5
56
102
{ACAD_REACTORS
330
47
102
}
330
47
100
AcDbScale
 70
     0
300
8:1
140
8.0
141
1.0
290
     0
  0
SCALE
  5
57
102
{ACAD_REACTORS
330
47
102
}
330
47
100
AcDbScale
 70
     0
300
10:1
140
10.0
141
1.0
290
     0
  0
SCALE
  5
58
102
{ACAD_REACTORS
330
47
102
}
330
47
100
AcDbScale
 70
     0
300
100:1
140
100.0
141
1.0
290
     0
  0
SCALE
  5
59
102
{ACAD_REACTORS
330
47
102
}
330
47
100
AcDbScale
 70
     0
300
1/128" = 1'-0"
140
0.0078125
141
12.0
290
     0
  0
SCALE
  5
5A
102
{ACAD_REACTORS
330
47
102
}
330
47
100
AcDbScale
 70
     0
300
1/64" = 1'-0"
140
0.015625
141
12.0
290
     0
  0
SCALE
  5
5B
102
{ACAD_REACTORS
330
47
102
}
330
47
100
AcDbScale
 70
     0
300
1/32" = 1'-0"
140
0.03125
141
12.0
290
     0
  0
SCALE
  5
5C
102
{ACAD_REACTORS
330
47
102
}
330
47
100
AcDbScale
 70
     0
300
1/16" = 1'-0"
140
0.0625
141
12.0
290
     0
  0
SCALE
  5
5D
102
{ACAD_REACTORS
330
47
102
}
330
47
100
AcDbScale
 70
     0
300
3/32" = 1'-0"
140
0.09375
141
12.0
290
     0
  0
SCALE
  5
5E
102
{ACAD_REACTORS
330
47
102
}
330
47
100
AcDbScale
 70
     0
300
1/8" = 1'-0"
140
0.125
141
12.0
290
     0
  0
SCALE
  5
5F
102
{ACAD_REACTORS
330
47
102
}
330
47
100
AcDbScale
 70
     0
300
3/16" = 1'-0"
140
0.1875
141
12.0
290
     0
  0
SCALE
  5
60
102
{ACAD_REACTORS
330
47
102
}
330
47
100
AcDbScale
 70
     0
300
1/4" = 1'-0"
140
0.25
141
12.0
290
     0
  0
SCALE
  5
61
102
{ACAD_REACTORS
330
47
102
}
330
47
100
AcDbScale
 70
     0
300
3/8" = 1'-0"
140
0.375
141
12.0
290
     0
  0
SCALE
  5
62
102
{ACAD_REACTORS
330
47
102
}
330
47
100
AcDbScale
 70
     0
300
1/2" = 1'-0"
140
0.5
141
12.0
290
     0
  0
SCALE
  5
63
102
{ACAD_REACTORS
330
47
102
}
330
47
100
AcDbScale
 70
     0
300
3/4" = 1'-0"
140
0.75
141
12.0
290
     0
  0
SCALE
  5
64
102
{ACAD_REACTORS
330
47
102
}
330
47
100
AcDbScale
 70
     0
300
1" = 1'-0"
140
1.0
141
12.0
290
     0
  0
SCALE
  5
65
102
{ACAD_REACTORS
330
47
102
}
330
47
100
AcDbScale
 70
     0
300
1-1/2" = 1'-0"
140
1.5
141
12.0
290
     0
  0
SCALE
  5
66
102
{ACAD_REACTORS
330
47
102
}
330
47
100
AcDbScale
 70
     0
300
3" = 1'-0"
140
3.0
141
12.0
290
     0
  0
SCALE
  5
67
102
{ACAD_REACTORS
330
47
102
}
330
47
100
AcDbScale
 70
     0
300
6" = 1'-0"
140
6.0
141
12.0
290
     0
  0
SCALE
  5
68
102
{ACAD_REACTORS
330
47
102
}
330
47
100
AcDbScale
 70
     0
300
1'-0" = 1'-0"
140
12.0
141
12.0
290
     0
  0
ENDSEC
  0
EOF
